GEORDIE - Your Heart Out


Your Heart Out Тип: табулатура


Great song. Notes in brackets are not necessarily sounded, but are usually played.

Fig. 1. / Intro-(0:00-0:35)

A5 G5 D A5 G5 D
e|----------2-|------2--|
b|----------3-|------3--|
g|.-2-2-----2-|-2----2-.|
d|.-2-2--0--0-|-2--0-0-.|
a|--0-0--0----|-0--0----|
E|------(3)---|---(3)---|

Verse 1. Part 1. Bass and Drums (0:36-0:54).

Bridge (0:55-1:07). Malcolm and Angus play Fig. 1.
but they are slightly offset, you have to
listen to the song to know what I mean.

Chorus-(1:08-1:19)

D C5 G5 C5 G5 C5
|--2-2------|--------|
|--3-3--3-3-|-3-3-3--|
|.-2-2--0-0-|-0-0-0-.|
|.-0-0--0-0-|-0-0-0-.|
|-------3-x-|-3-x-3--|
|---------3-|---3----|

Bass and Drums-(1:20-1:31)

Bridge-(1:32-1:45)

Bridge 2-(1:46-1:51)

Chorus-(1:52-2:01)

Solo-(2:02-2:32)



|-----------(3)--7-7-7-7-7-7-7-7-7-7-7-7-7-7-7-7-7-7-7-7-7-7-7-7-7-7-7-7-7-|
|-----------(3)--8-8-8-8-8-8-8-8-8-8-8-8-8-8-8-8-8-8-8-8-8-8-8-8-8-8-8-8-8-|
|---2-------(0)------------------------------------------------------------|
|---2-------(0)------------------------------------------------------------|
|---0----------------------------------------------------------------------|
|-----------(3)------------------------------------------------------------|

|--------------------------------------------------------------------------|
|----15b-r^13-15b-------15b--15b--15b--15b----~~~~~~~~~~~~-\-/10\--8b------|
|-----------------------------------------------------------7--5~~~~--\--5-|
|----------------------------------------------------------7---------------|
|--------------------------------------------------------------------------|
|--------------------------------------------------------------------------|

|-------------------------------------------------------------8b--b--8-5---|
|---------------------------------------------------------------------8^5--|
|--------------5--<7>-<7>~~~-5---7---5--7--4--5--2--4----5^7b--7b--\------7|
|--7^5^7~~~~~~-----------------7------------------5b-r-^5------------------|
|--------------------------------------------------------------------------|
|--------------------------------------------------------------------------|

|-------------------------------------------8---8---8-8~~~~~--x-8\2/-------|
|-5-------------------------------8--10---7--7--7~~~~~-x-7\1/-15b-15b-15b--|
|---7^5---7---7-5-5---7~~~~~-5--8---7--9~~~~-9---9----9--------------------|
|-------7---7--------------------------------------------------------------|
|--------------------------------------------------------------------------|
|--------------------------------------------------------------------------|

|---15--15--15--15--15-\3/17-------17------17------------------------------|
|-15b15-15b15-15b15-15b\3/17-20b----20b-----20b~~~~~~~-8^5----5---5--------|
|-------------------------------------------------------7^8---7---<5>-5^7~~|
|--------------------------------------------------------------------------|
|--------------------------------------------------------------------------|
|--------------------------------------------------------------------------|


|--15b-15b-15b-\-----------------------------------------------------------|
|----------------15b--15--13--12-------------------------------------------|
|--------------------------------14--12------------------------------------|
|--------------------------------------------------------------------------|
|--------------------------------------------------------------------------|
|--------------------------------------------------------------------------|

|------5-------------------------------------------------------------------|
|----5---8^5-8^5---5------------------------------------------/15--/17\----|
|----------------8---8^7^5-----------------------------------------------2-|
|--------------------------7-5-------------------------------------------2-|
|------------------------------7-6-5\3b-3b^3-----------------------------0-|
|--------------------------------------------5^3---------------------------|

First Bridge-(2:33-2:56)

Second Bridge-(2:57-3:07)

Outro/Intro-(3:08-3:50)



*

«  Ноябрь 2017  »
ПнВтСрЧтПтСбВс
  12345
6789101112
13141516171819
20212223242526
27282930

*

ПАРТНЕРЫ:


Fan Site Geordie 2008 - 2017