GEORDIE - Your Foundations (intro)


Your Foundations (intro) Тип: табулатура


This is my first tab and ithink it is correct so preview it anyway thanks.

e|------------------|-------------------------------------|
b|-------8--------8-|-----10-----------10-------------10--|
g|-------7--------7-|-----7------------7--------------7---|
d|------------0-----|--0-----0----0---------0-----0-------|
a|------------------|-------------------------------------|
e|------------------|-------------------------------------|

|-------------------------------------|
|------10------------10--------------6|
|------7-------------7---------------7|
|---0------0----0--------0-------0----|
|-------------------------------------|
|-------------------------------------|
 

билеты на филиппа киркорова


*

«  Июль 2018  »
ПнВтСрЧтПтСбВс
      1
2345678
9101112131415
16171819202122
23242526272829
3031

*

ПАРТНЕРЫ:


Fan Site Geordie 2008 - 2018