GEORDIE - War Machine (intro)


War Machine (intro) Тип: табулатура


AC/DC
War Machine
Album-Black Ice 2008

This is my first tab and some parts mite be a tad off but its pretty close. Any
E-mail me. jimmy-jumper@hotmail.com

E---------------------3-0-0-0-0---3-0-0-0-0-------------------3-0-0-0-0-----|
B-------3-----3-------3-0-0-0-0---3-0-0-0-0-----3-----3-------3-0-0-0-0-----|
G----0--2--2--2--2---------------------------0--2--2--2--2------------------|
D----0--0--2--0--2---------------------------0--0--2--0--2------------------|
A----------0-----0---------------------------------0-----0------------------|
E---------------------------------------------------------------------------|


E------3-0-0-0-0------------------3-0-0-0-0---3-0-0-0-0---------------------|
B------3-0-0-0-0--3--2-----2------3-0-0-0-0---3-0-0-0-0--3--2-----2---------|
G-----------------0--3--2--3--2--------------------------0--3--2--3--2------|
D-----------------0--0--2--0--2--------------------------0--0--2--0--2------|
A-----------------0-----0-----0--------------------------0-----0-----0------|
E-----------------3--------------------------------------3------------------|


E---------------------------------------------------------------------------|
B----------------------------------------------------3-3-3-3-3--------------|
G----------------------------------------------------2-2-2-2-2--2-2-2-2-2---|
D------5-2-2-7----5-2-2-7----5-2-2-7----5-2-2-7------0-0-0-0-0--2-2-2-2-2---|
A------5-2-2-7----5-2-2-7----5-2-2-7----5-2-2-7-----------------0-0-0-0-0---|
E------3-0-0-5----3-0-0-5----3-0-0-5----3-0-0-5----3-----------3------------|


E---------------------------------------------------------------------------|
B---------------------------------------------------------------------------|
G---------------------------------------------------------------------------|
D-----5-2-2-7----5-2-2-7----5-2-2-7----5-2-2-7------------------------------|
A-----5-2-2-7----5-2-2-7----5-2-2-7----5-2-2-7------------------------------|
E-----3-0-0-5----3-0-0-5----3-0-0-5----3-0-0-5------------------------------|


After This The Lyrics Start And You Just Palm Mute The Last Riff. Listen To The Song And
Figure It Out
 

туры горящие на кипр


*

«  Ноябрь 2017  »
ПнВтСрЧтПтСбВс
  12345
6789101112
13141516171819
20212223242526
27282930

*

ПАРТНЕРЫ:


Fan Site Geordie 2008 - 2017