GEORDIE - War Machine


War Machine Тип: табулатура


War Machine by AC/DC
from Black Ice

G D A D A
e-3--2-----2-----|
B-3--3--2--3--2--|
G-0--2--2--2--2--|
D-0--0--2--0--2--|
A-2-----0-----0--|
E-3--------------|

e-------5----------5----|
B-8p5-5---5--8p5-5---5--|
G-----------------------|
D-----------------------|
A-----------------------|
E-----------------------|

Main Riff
e--------------|
B--------------|
G--------------|
D-------2------|
A-2-2-2-0-2----|
E-3-0-0---0----|

Chorus
e-----------------|
B-----------------|
G----------7-7-7--|
D-7-7-7-7--7-7-7--|
A-7-7-7-7--5-5-5--|
E-5-5-5-5---------|

Any corrections please comment
Thanks


*

«  Июнь 2018  »
ПнВтСрЧтПтСбВс
    123
45678910
11121314151617
18192021222324
252627282930

*

ПАРТНЕРЫ:


Fan Site Geordie 2008 - 2018