GEORDIE - Touch Too Much (solo)


Touch Too Much (solo) Тип: табулатура


AC/DC-Touch Too Much
Highway To Hell (1979)
Transcribed by: playinbass1432

Tune down 1/4 step (Both guitars)
Malcolm (Rhythm=Top)
Angus (Lead=Bottom)

Intro:

PM-------------| PM-------------| PM------------| PM-------------|
E5 E5 E5 E5
E|-----------------|-----------------|-----------------|-----------------|
B|-----------------|-----------------|-----------------|-----------------|
G|-9---------------|-9---------------|-9---------------|-9---------------|
D|-9---------------|-9---------------|-9---------------|-9---------------|
A|(7)--------------|(7)--------------|(7)--------------|(7)--------------|
E|---0-0-0-0-0-0-0-|---0-0-0-0-0-0-0-|---0-0-0-0-0-0-0-|---0-0-0-0-0-0-0-|
|
E|-----------------|-----------------|-----------------|-----------------|
B|-----------------|-----------------|-----------------|-----------------|
G|-----------------|-----------------|-----------------|-----------------|
D|-----------------|-----------------|-----------------|-----------------|
A|-----------------|-----------------|-----------------|-----------------|
E|-0-0-0-0-0-0-0---|-0-0-0-0-0-0-0-0-|-0-0-0-0-0-0-0-0-|-0-0-0-0-0-0-0-0-|

Verse 1: (Play 2x)

PM-------------| PM-------------| PM-------------|
E5 C5 A5
E|-----------------|-----------------|-----------------|-----------------|
B|-----------------|-----------------|-----------------|15-14-14-15-14-14|
G|-9---------------|-5-5-5-5-5-5-5-5-|-2-2-2-2-2-2-2-2-|14-14-14-14-14-14|
D|-9---------------|-5---------------|-2---------------|-----------------|
A|(7)7-7-7-7-7-7-7-|(3)3-3-3-3-3-3-3-|(0)0-0-0-0-0-0-0-|0--0--0--0--0--0-|
E|---0-0-0-0-0-0-0-|-----------------|-----------------|-----------------|
|
E|-----------------|-----------------|-----------------|-----------------|
B|-----------------|-----------------|-----------------|-----------------|
G|-----------------|-----------------|-----------------|-----------------|
D|-----------------|-----------------|-----------------|-----------------|
A|-----------------|-3-3-3-3-3-3-3-3-|-0-0-0-0-0-0-0-0-|-0-0-0-0-0-0-0-0-|
E|-0-0-0-0-0-0-0-0-|-----------------|-----------------|-----------------|

It was one of those nights
When you turn out the lights
And everything comes into view
She was takin' her time
I was losin' my mind
There was nothin' that she wouldn't do

Pre Chorus 1:

PM------| PM---------------| PM------| PM---------------|
C5 A5
E|-----------------|-----------------|-----------------|-----------------|
B|-----------------|-----------------|-----------------|-----------------|
G|-5---------5---5-|-----------------|-2---------2---2-|-----------------|
D|-5-5-5-5-5-5---5-|-5-5-5-5-5-5-5-5-|-2-2-2-2-2-2---2-|-2-2-2-2-2-2-2-2-|
A|-3-3-3-3-3-3---3-|-3-3-3-3-3-3-3-3-|-0-0-0-0-0-0---0-|-0-0-0-0-0-0-0-0-|
E|-----------------|-----------------|-----------------|-----------------|
|
E|-----------------|-----------------|-----------------|-----------------|
B|-----------------|-----------------|-----------------|-----------------|
G|-5---------5---5-|-----------------|-2---------2---2-|-----------------|
A|-5---------5---5-|-----------------|-2---------2---2-|-----------------|
D|-3---------3---3-|-----------------|-0---------0---0-|-----------------|
E|-----------------|-----------------|-----------------|-----------------|

PM PM-| PM-| PM
C5 D5
E|-----------------|-----------------|-----------------|-----------------|
B|-----------------|-----------------|-3---3-----3---3-|-3-----3-3---3---|
G|-5---5-----5---5-|-------5-5---5---|-2---2-----2---2-|-2-----2-2---2---|
D|-5-5-5-5-5-5---5-|---5-5-5-5-5-5---|-0---0-----0---0-|-0-----0-0---0---|
A|-3-3-3-3-3-3---3-|---3-3-3-3-3-3---|-----------------|-----------------|
E|-----------------|-----------------|-----------------|-----------------|
|
E|-----------------|-----------------|-----------------|-----------------|
B|-----------------|-----------------|-3---3-----3---3-|-3-----3-3---3---|
G|-5---5-----5---5-|-------5-5---5---|-2---2-----2---2-|-2-----2-2---2---|
D|-5---5-----5---5-|-------5-5---5---|-0---0-----0---0-|-0-----0-0---0---|
A|-3---3-----3---3-|-------3-3---3---|-----------------|-----------------|
E|-----------------|-----------------|-----------------|-----------------|

It wasn't the first
It wasn't the last
She knew we was makin' love
I was so satisfied
Deep down inside
Like a hand in a velvet glove

Chorus 1:

E5 G5 A5 C5 D5
E|-----------------|-----------------|-----------------|-----------------|
B|-----------------|-----------------|-----------------|-------3---3-3---|
G|-----------------|-----------------|-2---2---2-2-2---|-------2---2-2---|
D|-2---2-2-------5-|---5-5---5-5-5-5-|-2---2---2-2-2-5-|-------0---0-0---|
A|-2---2-2-----2-5-|---5-5---5-5-5-5-|-0---0---0-0-0-3-|---2-0-----------|
E|-0---0-0-----0-3-|---3-3---3-3-3-3-|-----------------|-----------------|
|
E|-----------------|-----------------|-----------------|-----------------|
B|-----------------|-----------------|-----------------|-------3---3-3---|
G|-----------------|-----------------|-2---2---2-2-2---|-------2---2-2---|
D|-2---2-2-------5-|---5-5---5-5-5-5-|-2---2---2-2-2---|-------0---0-0---|
A|-2---2-2-------5-|---5-5---5-5-5-5-|-0---0---0-0-0-3-|~~~2-0-----------|
E|-0---0-0-----0-3-|---3-3---3-3-3-3-|-----------------|-----------------|

E5 G5 A5 C5 D5
E|-----------------|-----------------|-----------------|-----------------|
B|-----------------|-----------------|-----------------|-------3---3-3---|
G|-----------------|-----------------|-2---2---2-2-2---|-------2---2-2---|
D|-2---2---2-2---5-|---5-5---5-5-5---|-2---2---2-2-2-5-|-------0---0-0---|
A|-2---2---2-2-2-5-|---5-5---5-5-5---|-0---0---0-0-0-3-|---2-0-----------|
E|-0---0---0-0-0-3-|---3-3---3-3-3---|-----------------|-----------------|
|
E|-----------------|-----------------|-----------------|-----------------|
B|-----------------|-----------------|-----------------|-------3---3-3---|
G|-----------------|-----------------|-2---2---2-2-2---|-------2---2-2---|
D|-2---2---2-2-2-5-|---5-5---5-5-5---|-2---2---2-2-2---|-------0---0-0---|
A|-2---2---2-2-2-5-|---5-5---5-5-5---|-0---0---0-0-0-3-|~~~2-0-----------|
E|-0---0---0-0-0-3-|---3-3---3-3-3---|-----------------|-----------------|

Seems like a touch
A touch too much
Seems like a touch
A touch too much

Pre Verse 2:

E5 G5 A5 C5 D5
E|-----------------|-----------------|-----------------|-----------------|
B|-----------------|-----------------|-----------------|-------3---3-3---|
G|-----------------|-----------------|-2---2---2-2-2-5-|-------2---2-2---|
D|-2---2---2-2-2-5-|---5-5---5-5-5---|-2---2---2-2-2-5-|---5-5-0---0-0---|
A|-2---2---2-2-2-5-|---5-5---5-5-5---|-0---0---0-0-0-3-|---3-3-----------|
E|-0---0---0-0-0-3-|---3-3---3-3-3---|-----------------|-----------------|
|
E|-----------------|-----------------|-----------------|-----------------|
B|-----------------|-----------------|-----------------|-------3---3-3---|
G|-----------------|-----------------|-2---2---2-2-2-5-|-------2---2-2---|
D|-2---2---2-2-2-5-|---5-5---5-5-5---|-2---2---2-2-2-5-|---5-5-0---0-0---|
A|-2---2---2-2-2-5-|---5-5---5-5-5---|-0---0---0-0-0-3-|---3-3-----------|
E|-0---0---0-0-0-3-|---3-3---3-3-3---|-----------------|-----------------|

PM-------------|
E5 G5 A5 D5 A5 D5 A5 D5
E|-----------------|-----------------|-----------------|-----------------|
B|-----------------|-----------------|-----------------|-3-----3-----3---|
G|-----------------|-----------------|-----------------|-2-2-2-2-2-2-2-2-|
D|-----2-2-----2-5-|-----------------|-2-2-2-2-2-2-2-2-|-0-2-2-0-2-2-0-2-|
A|-----2-2-----2-5-|-----------------|-0-0-0-0-0-0-0-0-|-----------------|
E|-----0-0-----0-3-|-----------------|-----------------|-----------------|
|
E|-----------------|-----------------|-----------------|-----------------|
B|-----------------|-----------------|-----------------|-3-----3-----3---|
G|-----------------|-----------------|-----------------|-2-2-2-2-2-2-2-2-|
D|-----2-2-----2-5-|-----------------|-2-2-2-2-2-2-2-2-|-0-2-2-0-2-2-0-2-|
A|-----2-2-----2-5-|-----------------|-0-0-0-0-0-0-0-0-|---0-0---0-0---0-|
E|-----0-0-----0-3-|-----------------|-----------------|-----------------|

Too much for my body
Too much for my brain
This damn woman's
gonna drive me insane
She got a touch
A touch too much

PM-------------|-----------------|
E5
E|-----------------|-----------------|
B|-----------------|-----------------|
G|-----------------|-----------------|
D|-----------------|-----------------|
A|-2-2-2-2-2-2-2-2-|-2-2-2-2-2-2-2-2-|
E|-0-0-0-0-0-0-0-0-|-0-0-0-0-0-0-0-0-|
|
E|-----------------|-----------------|
B|-----------------|-----------------|
G|-----------------|-----------------|
D|-----------------|-----------------|
A|-----------------|-----------------|
E|-0-0-0-0-0-0-0-0-|-0-0-0-0-0-0-0-0-|

Verse 2: (Play 2x)

|-Alternate between palm muting and striking normally|
E5 C5 A5 A5 D5 A5
E|-----------------|-----------------|-----------------|-----------------|
B|-----------------|-----------------|-----------------|---3---3---------|
G|-----------------|-----------------|-----------------|-2-2---2---2-----|
D|-----------------|-5-5-5-5-5-5-5-5-|-2-2-2-2-2-2-2---|-2-0---0---2-----|
A|-2-2-2-2-2-2-2-2-|-3-3-3-3-3-3-3-3-|-0-0-0-0-0-0-0-0-|-0---------0-----|
E|-0-0-0-0-0-0-0-0-|-----------------|-----------------|-----------------|
|
E|-----------------|-----------------|-----------------|-----------------|
B|-----------------|-----------------|-----------------|---3---3---------|
G|-----------------|-5---------------|-2---------------|-2-2---2---2-----|
D|-2---------------|-5---------------|-2---------------|-2-0---0---2-----|
A|-2---------------|-3---------------|-0---------------|-0---------0-----|
E|-0---------------|-----------------|-----------------|-----------------|

She had the face of an angel
Smiling with sin
The body of Venus with arms
Dealing with danger
Stroking my skin
Like a thunder and lightening storm

Pre Chorus 2:

C5 A5
E|-----------------|-----------------|-----------------|-----------------|
B|-----------------|-----------------|-----------------|-----------------|
G|-5---------5---5-|-----------------|-2---------2---2-|-----------------|
D|-5-5-5-5-5-5---5-|-5-5-5-5-5-5-5-5-|-2-2-2-2-2-2---2-|-2-2-2-2-2-2-2-2-|
A|-3-3-3-3-3-3---3-|-3-3-3-3-3-3-3-3-|-0-0-0-0-0-0---0-|-0-0-0-0-0-0-0-0-|
E|-----------------|-----------------|-----------------|-----------------|
|
E|-----------------|-----------------|-----------------|-----------------|
B|-----------------|-----------------|-----------------|-----------------|
G|-5---------5---5-|-----------------|-2---------2---2-|-----------------|
A|-5---------5---5-|-----------------|-2---------2---2-|-----------------|
D|-3---------3---3-|-----------------|-0---------0---0-|-----------------|
E|-----------------|-----------------|-----------------|-----------------|

C5 D5
E|-----------------|-----------------|-----------------|-----------------|
B|-----------------|-----------------|-3---3-----3---3-|-3-----3-3---3---|
G|-5---5-----5---5-|-------5-5---5---|-2---2-----2---2-|-2-----2-2---2---|
D|-5-5-5-5-5-5---5-|-5-5-5-5-5-5-5-5-|-0---0-----0---0-|-0-----0-0---0---|
A|-3-3-3-3-3-3---3-|-3-3-3-3-3-3-3-3-|-----------------|-----------------|
E|-----------------|-----------------|-----------------|-----------------|
|
E|-----------------|-----------------|-----------------|-----------------|
B|-----------------|-----------------|-3---3-----3---3-|-3-----3-3---3---|
G|-5---5-----5---5-|-------5-5---5---|-2---2-----2---2-|-2-----2-2---2---|
D|-5---5-----5---5-|-------5-5---5---|-0---0-----0---0-|-0-----0-0---0---|
A|-3---3-----3---3-|-------3-3---3---|-----------------|-----------------|
E|-----------------|-----------------|-----------------|-----------------|

It wasn't the first
It wasn't the last
It wasn't that she didn't care
She wanted it hard
Wanted it fast
She liked it done medium rare


*

«  Сентябрь 2017  »
ПнВтСрЧтПтСбВс
    123
45678910
11121314151617
18192021222324
252627282930

*

ПАРТНЕРЫ:


Fan Site Geordie 2008 - 2017