GEORDIE - To Thrill Live


To Thrill Live Тип: табулатура


Tuning: Standard
Guitar 1-Angus
Guitar 2-Malcolm

Here is the intro

Guitar 1 Guitar 1 Guitar 2
e|------------- ---------------- -3---2---3---2----|
B|------------- ---------------- -3---3---3---3----|
G|------------- ---------------- -0-x-2-x-0-x-2--2-|
D|-2-2---2----- -2-2---2-2-2-2-- -0-x-0-x-0-x-0--2-|
A|-0-3h4-0----- -0-3h4-0-0-0-0-- -x-x---x-x-x----0-|
E|------------- ---------------- -3-------3--------|

Verses

Guitars 1 and 2
e|-3---2---3---2-------|
B|-3---3---3---3-------|
G|-0-x-2-x-0-x-2-2-----|
D|-0-x-0-x-0-x-0-2-----|
A|-x-x---x-x-x---0-----|
E|-3-------3-----------|

Bridge
Guitars 1 and 2
e|--------------------------------------------------------|
B|---------------------------8-8---8-8---8-8---8-8---8-8--|
G|-5---5---5---5--7---7--7---7-7---7-7---7-7---7-7---7-7--|
D|-5-5-5---5-5-5--7-7-7--7---6-6---6-6---6-6---6-6---6-6--|
A|-3-5-3---3-5-3--5-7-5--5---7-7---7-7---7-7---7-7---7-7--|
E|---3-------3------5-5----0-----0-----0-----0-----0------|

Chorus
Guitars 1 and 2
e|-----3--2--|
B|-----3--3--|
G--2---0--2--|
D|-2---0--0--|
A|-0---x--0--|
E|-----3-----|

Interlude
Guitars 1 and 2
e|----------------------------------|
B|---8-8--8-8---8-8---8-8---8-8-----|
G|---7-7--7-7---7-7---7-7---7-7-----| Repeat four times
D|---6-6--6-6---6-6---6-6---6-6-----|
A|---7-7--7-7---7-7---7-7---7-7-----|
E|-0-----0----0-----0-----0-----0---|

Guitar Solo
Guitar 1
e|-------------------- -------15-------15--------15--15-----|
B|-8-7-8-7--7--5------ -15B17----15B17----15B17-(17)(17)r15-|
G|-7-7-7-7--7--5------Play 4 times then-------------------------------------|
D|---------------7---- -------------------------------------|
A|-------------------- -------------------------------------|
E|-------------------- -------------------------------------|

e|--------------15-------15--15--15--15--15->--------17-------17--15--15--|
B|-13-----15B17----15B17----(17)(17)(17)(17)>--17B19----17B19----(17)(17)-|
G|----14------------------------------------------------------------------|
D|------------------------------------------------------------------------|
A|------------------------------------------------------------------------|
E|------------------------------------------------------------------------|

e|--15--15->----------------------------------------------------------|
B|-(17)(17)>------12--12----12--12----12--12----12--12----12--12------|
G|----------------12b-12b---12b-12b---12b-12b---12b-12b---12b-12b-----|
D|--------------------------------------------------------------------|
A|--------------------------------------------------------------------|
E|--------------0---------0---------0---------0---------0---------0---|

Guitar Solo
Guitar 2
e|-3-2-3-2-------|
B|-3-3-3-3-------|
G|-0-2-0-2-2-----|Play 4 times then play the Bridge once.
D|-0-0-0-0-0---2-|
A|-x-0-x-0---4-0-|
E|-3---3---------|

Guitar Solo 2
e|-9--9--9--9---10-10-10-10-10-10-10-10--|
B|-10-10-10-10--12-12-12-12-10-10-10-10--|
G|-9--9--9--9---12-12-12-12-11-11-11-11--|Repeat many times with syncopated
D|---------------------------------------| rhythyms
A|---------------------------------------|
E|---------------------------------------|

e|---------------------------------------------------|
B|-5-5-5-5-5-5-5-5--3-3-3-3-3-3-3-3--3-3-3-3-3-3-3-3-|
G|-6-6-6-6-6-6-6-6--4-4-4-4-4-4-4-4--2-2-2-2-2-2-2-2-|
D|-7-7-7-7-7-7-7-7--5-5-5-5-5-5-5-5--4-4-4-4-4-4-4-4-|
A|---------------------------------------------------|
E|---------------------------------------------------|

Guitar Solo 2
Guitar 2 A G D
e|------------------------3-2----3-2----------------3-2---3-2--|
B|------------------------3-3----3-3----------------3-3---3-3--|
G|----------------------2-0-2--2-0-2-------------2--0-2-2-0-2--|Repeat A,G,D
D|-2-----2--------------2-0-0--2-0-0-------------2--0-0-2-0-0--|Chord Sequenc
A|-2-----2--------------0-x-0--0-x-0-------------0--x-0-0-x-0--|until end of
E|-0-----0----0-1-2-3-4---3------3-----0-1-2-3-4----3-----3----|solo

Outro Solo
Guitar 1

e|------------------------- -------------------------------|
B|-10----10----10----10---- -13-10-10-10-13---10-13-13-13--|
G|-12B14-12B14-12B14-12B14-Repeat Many times-------------------------------|
D|------------------------- -------------------------------|
A|------------------------- -------------------------------|
E|------------------------- -------------------------------|

e|-------15--------------------------------------------------------------|
B|-15B17----15B17-13--15B17--13-15--------------17--17--17--17--17--17---|
G|---------------------------------14-14--16B18(18)(18)(18)(18)(18)(18)--|
D|-----------------------------------------------------------------------|
A|-----------------------------------------------------------------------|
E|-----------------------------------------------------------------------|

e|--------------------------------------------------------17-------17-------|
B|-------17--17--17--17--17--17---------------------20B22----20B22----20B22-|
G|-15B17(17)(17)(17)(17)(17)(17)-15b16-14-16----14--------------------------|
D|-------------------------------------------16-----------------------------|
A|--------------------------------------------------------------------------|
E|--------------------------------------------------------------------------|

e|-17-------17-----20B22-20-------------------------------------------------|
B|----20B22-----17-----------20B22(22)(22)(22)(22)-17-20B22(22)(22)(22)(22)-|
G|--------------------------------------------------------------------------|
D|--------------------------------------------------------------------------|
A|--------------------------------------------------------------------------|
E|--------------------------------------------------------------------------|

e|-2-2-2---------------------------------------5-----------------------------|
B|-3-3-3------------------fast picking----8B10---5--8B10-8-8p5---------------|
G|-2-2-2---2---5---7-5-7B9(9)(9)(9)-7--------------------------7-5-----------|
D|-0-0-0-----------------------------------------------------------7-5-------|
A|---------------------------------------------------------------------7-5---|
E|-------------------------------------------------------------------------8-|

e|-----------------|
B|-----------------|
G|-------------2---|
D|-------------2---|
A|-------------0---|
E|-5--3B5----------|

Outro Solo
Guitar 2
e|---3-2-- -2-2-2-2-2--2-2-2-2-2---|
B|---3-3-- -3-3-3-3-3--3-3-3-3-3---|
G|-2-0-2--Repeat throughout outro. Then play this-2-2-2-2-2--2-2-2-2-2---|
D|-2-0-0-- -0-0-0-0-0--0-0-0-0-0---|
A|-0-x-0-- -0-0-0-0-0--0-0-0-0-0---|
E|---3-------------------------------------------------------------------|

e|-2-2-2---3---2------------------------------------------------|
B|-3-3-3---3---3------------------------------------------------|
G|-2-2-2---0---2----222---------------------------------------2-|
D|-0-0-0---0---0----222Pick Rapidly continueing till drumroll-2-|
A|-0-0-0---x---0----000---------------------------------------0-|
E|---------3----------------------------------------------------|

Key

B=Bend whole step
b=Bend half step
>=slide down
r=release
x=mute
()=hold bend


*

«  Ноябрь 2017  »
ПнВтСрЧтПтСбВс
  12345
6789101112
13141516171819
20212223242526
27282930

*

ПАРТНЕРЫ:


Fan Site Geordie 2008 - 2017