GEORDIE - To The Moon


To The Moon Тип: табулатура


Intro + Verse:
E|----------------------|-------------------|----------------------|
B|----------------------|-------------------|----------------------|
G|----------------------|-------------------|----------------------|
D|----------0--------0--|----2--------------|----------0--------0--|
A|-------------0-----0--|----2--------------|-------------0-----0--|
E|----------------0-----|-------------------|----------------0-----|

|-------------------|----------------------|-------------------|
|-------------------|----------------------|-------------------|
|-------------------|----------------------|-------------------|
|----2--------------|----------0--------0--|----2--------------|
|----2--------------|-------------0-----0--|----2--------------|
|-------------------|----------------0-----|-------------------|

|----------------------|-------------------|----------------------|
|----------------------|-------------------|----------------------|
|----------------------|-------------------|----------0--------0--|
|----------0--------0--|----2--------------|-------------0-----0--|
|-------------0-----0--|----2--------------|----------------0-----|
|----------------0-----|-------------------|----------------------|

|-------------------|----------------------|-------------------|
|-------------------|----------------------|-------------------|
|----2--------------|----------0--------0--|----2--------------|
|----2--------------|-------------0-----0--|----2--------------|
|-------------------|----------------0-----|-------------------|
|-------------------|----------------------|-------------------|

|----------------------|-------------------|----------------------|
|----------------------|-------------------|----------------------|
|----------------------|-------------------|----------------------|
|----------0--------0--|----2--------------|----------0--------0--|
|-------------0-----0--|----2--------------|-------------0-----0--|
|----------------0-----|-------------------|----------------0-----|


|-------------------|------------------|
|-------------------|------------------|
|-------------------|------------------|
|----2--------------|------------------|
|----2--------------|------------------|
|-------------------|------------------|

Chorus
|------------------------|
|------------3-3---------|
|----------2-2-2-2-------|
|--------2-2-0-0-2-2-----|
|--------2-0-----0-2-----|
|--------0---------0-----|

|------------------------|
|------------3-3---------|
|----------2-2-2-2-------|
|--------2-2-0-0-2-2-----|
|--------2-0-----0-2-----|
|--------0---------0-----|


|------------------------|
|------------3-3---------|
|----------2-2-2-2-------|
|--------2-2-0-0-2-2-----|
|--------2-0-----0-2-----|
|--------0---------0-----|

|------------------------|
|------------3-3---------|
|----------2-2-2-2-------|
|--------2-2-0-0-2-2-----|
|--------2-0-----0-2-----|
|--------0---------0-----|

Guitar solo
|-----------|----------|----------|--------|
|-15b-------|-15b------|----------|--12~---|
|-----------|----------|-12b------|--------|
|-----------|----------|----------|--------|
|-----------|----------|----------|--------|
|-----------|----------|----------|--------|

|--------|--------------|--------|--------|
|--------|--------------|--------|--------|
|--------|-/13-9~-/11\--|--------|--------|
|--------|--------------|--------|--------|
|--------|--------------|--------|-3b-----|
|--------|--------------|--------|--------|

Outro:
|------------------|-------------------------|-----------------------|
|------------------|-------------------------|-----------------------|
|------------------|-----------2----------0--|-----------------------|
|------------------|-----0--2-------2--------|----0-----4----2---0---|
|------------------|--0----------------0-----|-------0----------- ---|
|------------------|-------------------------|-----------------------|


*

«  Октябрь 2018  »
ПнВтСрЧтПтСбВс
1234567
891011121314
15161718192021
22232425262728
293031

*

ПАРТНЕРЫ:


Fan Site Geordie 2008 - 2018