GEORDIE - Tnt (album)


Tnt (album) Тип: табулатура


Album: T.N.T
Band: Ac/dc
tabbed by Austen L.

______________________________________________________________________________


Song: It's a Long Way To the Top


Intro: (Guitar 1)
+--------------------------------------------------------------------|
+--------------------------------------------------------------------|
+--------------------------------------------------------------------|
+---4..4----4-----4..4----4-----4..4----4-----4..4----4--------------|
+-0-2..2--X-2---0-2..2--X-2---0-2..2--X-2---0-2..2--X-2--------------|
+--------------------------------------------------------------------|

Fill (Guitar 2)
+--------------------|
+--------------------|
+----------------4---|......
+---4..4-------2-4---|......
+-0-2..2--X-2H4--2---|......
+--------------------|

After a while, Guitar 2 changes to this rhythm part:

+--------------|
+--------------|
+--------------|
+-4-4..4--2-4--|
+-0-2..2--2-2--|
+--------------|
p


Fill:

+------7--X-7.. Guitar 1-|
+------7----7------------|.
+------------------------|
+-4-4..4--2-4-- Guitar 2-|
+-0-2..2--2-2------------|
+------------------------|


Chorus:

+------------------- +-------------------------------------------------|
+------------------- +-------------------------------------------------|
+-4......2...4..----OR+-----9-------------------------------------------|
+-4......2...2..---- +-9-7-9-------------------------------------------|
+-2......0...------- +-9-7-7-------------------------------------------|
+------------------- +-7-5(0)------------------------------------------|

Bridge:
+-----------------------------------------------------------------------|
+-----------------------------------------------------------------------|
+-------9-----------9---------------------------------------------------|
+-9-----9-------7---9---9-----------------------------------------------|
+-9-----7-------7---7---9-----------------------------------------------|
+-7-------------5-------7-----------------------------------------------|

Then comes the solo. The bagpipe part goes:

+----7~~--|
+---------|
+-7H8-----|
+---------|
+---------|
+---------|


That's about it. It's pretty easy. The solo is in the 7th position.

The System:

--2H4------------| Hammer on
--4P2------------| Pull off
--2S4------------| Slide
--2..-- Let Ring
--2..2- Let Ring, then hit again
--2~~-- Vibrato

--0-0-- Palm Mute
p p


--0-0-- Up & Down Picking
U D

--0-0-2-0-0-3-0-0-2-0-0-3-0-0-2H3-- Metallica
p..........................
D U D U D U D U D U D U D U D

The spacing of the notes kind of reflects the timing of the song, but not
very well.


---------------------------------------------------------------------------


Song: Rock'n'Roll Singer

Intro:
E|-------------------|--------------------|----------------------|
B|-------------------|--------------------|----------------------|
G|----------------4--|--4--------------4--|---------4---------1--|
D|----------------4--|--4--------------4--|----2----4----2----2--|
A|----------------2--|--2--------------2--|----0----2----0----2--|
E|-------------------|--------------------|-------------------0--|

|-------------------|-------------------|--------------------|
|-------------------|-------------------|--------------------|
|--1----------------|----------------4--|--4--------------4--|
|--2----------------|----------------4--|--4--------------4--|
|--2----------------|----------------2--|--2--------------2--|
|--0----------------|-------------------|--------------------|

|----------------------|-------------------|-------------------|
|----------------------|-------------------|-------------------|
|---------4---------1--|--1----------------|----------------4--|
|----2----4----2----2--|--2----------------|----------------4--|
|----0----2----0----2--|--2----------------|----------------2--|
|-------------------0--|--0----------------|-------------------|

|-----------------------|-----------------------|-----------------------|
|-----------------------|-----------------------|-----------------------|
|-------4----4-------4--|-------4----4-------4--|-------4----4-------4--|
|----2--4----4-------4--|----2--4----4-------4--|----2--4----4-------4--|
|----0--2----2----x--2--|----0--2----2----x--2--|----0--2----2----x--2--|
|-----------------------|-----------------------|-----------------------|

verse pattern:
|-----------------------|-----------------------|-----------------------|
|-----------------------|-----------------------|--------------------3--|
|-------4----4-------4--|-------4----4-------4--|-------4----4-------2--|
|----2--4----4-------4--|----2--4----4-------4--|----2--4----4-------0--|
|----0--2----2----x--2--|----0--2----2----x--2--|----0--2----2----x--0--|
|-----------------------|-----------------------|-----------------------|

end verse pattern:
--------------------|-----------------------|-----------------------|
--------------------|-----------------------|-----------------------|
--------1--------4--|-------4----4-------4--|-------4----4-------4--|
--------2--------4--|----2--4----4-------4--|----2--4----4-------4--|
--------2--------2--|----0--2----2----x--2--|----0--2----2----x--2--|
--------0-----------|-----------------------|-----------------------|


to chorus: doctor lawyerman
|-----------------------|-----------------------|-------------------|
|-----------------------|-----------------------|-------------------|
|-------4----4-------4--|-------4----4-------1--|----------------4--|
|----2--4----4-------4--|----2--4----4----x--2--|----------------4--|
|----0--2----2----x--2--|----0--2----2----x--2--|----------------2--|
|-----------------------|--------------------0--|-------------------|

but I... gonna be...
|------------------|-------------------|------------------|---------------------|
|------------------|-------------------|------------------|---------------------|
|------------------|--1----------------|------------------|--4--------2------1--|
|------------------|--2----------------|------------------|--4--------2------2--|
|------------------|--2----------------|------------------|--2--------0------2--|
|------------------|--0----------------|------------------|------------------0--|

gonna be...
|-------------------|---------------------|-------------------|
|----------3--------|---------------------|----------3--------|
|----------2--------|--4--------2------1--|----------2--------|
|----------0--------|--4--------2------2--|----------0--------|
|----------0--------|--2--------0------2--|----------0--------|
|-------------------|------------------0--|-------------------|

gonna be... gonna be...
|---------------------|-------------------|---------------------|
|---------------------|----------3--------|---------------------|
|--4--------2------1--|----------2--------|--4--------2------1--|
|--4--------2------2--|----------0--------|--4--------2------2--|
|--2--------0------2--|----------0--------|--2--------0------2--|
|------------------0--|-------------------|------------------0--|

to verse:
|----------------------|-----------------------|-----------------------|
|----------------------|-----------------------|-----------------------|
|------1----1--1----1--|--1----1--1----1----4--|-------4----4-------4--|
|------2----2--2----2--|--2----2--2----2----4--|----2--4----4----x--4--|
|------2----2--2----2--|--2----2--2----2----2--|----0--2----2----x--2--|
|------0----0--0----0--|--0----0--0----0-------|-----------------------|


after 2nd chorus: gonna be...
|------------------|------------------|---------------------|
|------------------|------------------|---------------------|
|------------------|------------------|--4--------2------1--|
|------------------|------------------|--4--------2------2--|
|------------------|------------------|--2---------------2--|
|------------------|------------------|------------------0--|

|----------------------|-----------------------|------------------|
|----------------------|-----------------------|------------------|
|------1----1--1----1--|--1----1--1----1----4--|------------------|
|------2----2--2----2--|--2----2--2----2----4--|------------------|
|------2----2--2----2--|--2----2--2----2----2--|------------------|
|------0----0--0----0--|--0----0--0----0-------|------------------|

to solo:
|----------------------|--------------------|------------------|
|----------------------|--------------------|------------------|
|--4---------4----2----|--1--1--------------|------------------|
|--4----2----4----2----|--2--2--------------|------------------|
|--2----0----2----0----|--2--2--------------|------------------|
|----------------------|--0--0--------------|------------------|


end of solo:
|-------------------|-----------------------|-----------------------|
|-------------------|-----------------------|-----------------------|
|----------------4--|-------4----4-------4--|-------4----4-------4--|
|----------------4--|----2--4----4-------4--|----2--4----4-------4--|
|----------------2--|----0--2----2----x--2--|----0--2----2----x--2--|
|-------------------|-----------------------|-----------------------|

you can stick...
|-----------------------|-----------------------|------------------|
|-----------------------|-----------------------|------------------|
|-------4----4-------4--|-------4----4----------|------------------|
|----2--4----4-------4--|----2--4----4-------4--|------------------|
|----0--2----2----x--2--|----0--2----2----x--4--|------------------|
|-----------------------|-----------------0--2--|------------------|

------------------------------------------------------------------------------

Song:The Jack

Intro:
B A B A B A E
e|----------|----------|----------|----------|----------|----------|----------|
b|----------|----------|----------|----------|----------|----------|----------|
g|----------|----------|----------|----------|----------|----------|----------|
D|-4-4-6-7--|-2-2-4-5--|-4-4-6-7--|-2-2-4-5--|-4-4-6-7--|-2-2-4-5--|----------|
A|-2-2-2-2--|-0-0-0-0--|-2-2-2-2--|-0-0-0-0--|-2-2-2-2--|-0-0-0-0--|-2-2-4-5--|
E|----------|----------|----------|----------|----------|----------|-0-0-0-0--|

e|----------|-----------------|
b|----------|-----------------|
g|----------|-----------------|
D|-2-3-4----|-4-4-4-4-4-4-4/--|
A|-0-1-2----|-2-2-2-2-2-2-2/--|
E|----------|-----------------|

Figures:
E-Pattern A-Pattern
e|-----------| e|-----------|
b|-----------| b|--------3--| Verse: 4 x E-Pattern
g|-----------| g|--------4--| 4 x A-Pattern
D|-----------| D|--2-2-4-5--| 4 x E-Pattern
A|-2-2-4-5---| A|--0-0-0-0--| 4 x A-Pattern
E|-0-0-0-0---| E|-----------|

Chorus:
E
e|-------------------------------|-------------------------------|
b|-------------------------------|-------------------------------|
g|-------------------------------|-------------------------------|
D|-------------------------------|-------------------------------|
A|-2---2---4---4---5---5---4---4-|-2---2---4---4---5---5---4---4-|
E|-0---0---0---0---0---0---0---0-|-0---0---0---0---0---0---0---0-|

E
e|-------------------------------|-------------------------------|
b|-------------------------------|-------------------------------|
g|-------------------------------|-------------------------------|
D|-------------------------------|-------------------------------|
A|-2---2---4---4---5---5---4---4-|-2---2---4---4---5---5---4---4-|
E|-0---0---0---0---0---0---0---0-|-0---0---0---0---0---0---0---0-|

A
e|-------------------------------|-------------------------------|
b|-------------------------------|-------------------------------|
g|-------------------------------|-------------------------------|
D|-2---2---4---4---2---2---4---4-|-2---2---4---4---2---2---4---4-|
A|-0---0---0---0---0---0---0---0-|-0---0---0---0---0---0---0---0-|
E|-------------------------------|-------------------------------|

E
e|-------------------------------|-------------------------------|
b|-------------------------------|-------------------------------|
g|-------------------------------|-------------------------------|
D|-------------------------------|-------------------------------|
A|-2---2---4---4---5---5---4---4-|-2---2---4---4---5---5---4---4-|
E|-0---0---0---0---0---0---0---0-|-0---0---0---0---0---0---0---0-|

B A third time go to (*)
e|-------------------------------|-------------------------------|
b|-------------------------------|-------------------------------|
g|------4-4-4-4-4-4-4-4-4-4-4-4--|-2-2-2-2-2-2-2-2-2-2-2-2-------|
D|------4-4-4-4-4-4-4-4-4-4-4-4--|-2-2-2-2-2-2-2-2-2-2-2-2-------|
A|------2-2-2-2-2-2-2-2-2-2-2-2--|-0-0-0-0-0-0-0-0-0-0-0-0-------|
E|-------------------------------|-------------------------------|
E B
e|-------------------------------|-------------------------------|
b|-------------------------------|-------------------------------|
g|-------------------------------|-------------------------------|
D|-------------------------------|-----------------2---3---4-----|
A|-2---2---4---4---5---5---4---4-|-2---2---2---2---0---1---2-----|
E|-0---0---0---0---0---0---0---0-|-0---0---0---0---0---0---0-----|

(*) ritard b b r play Chorus 3 x take (*) third time
(F) (E) (x)=Tremolo picking
e|-----------0---3-(4)-0-----------------------------0--------------------------|
b|------0--3---0---------3--0------------------------0----------------------9---|
g|----------------------------2-4-2-0-2-0-------2----1----------------------9---|
D|-----------------------------------------2----3----2----------------------9---|
A|----------------------------------------------3----2----------------------7---|
E|-0-----------------------------------------0--1----0----------------------0---|

Solo: played over verse...see patterns!
E
b b r ~~~~ b b b
e|----------------------------------------------------------------------------|
b|----------------------------------------------------------------------12----|
g|--------9--11-(13)----------11-13-11-9---------9--11-13---11-12----13-------|
D|-9--11---------------9--11---------------9--11------------------------------|
A|----------------------------------------------------------------------------|
E|----------------------------------------------------------------------------|
B
r b r b bend b
e|------------------------------------------------------------------------------|
b|-------------------------------12---15----------------------------------------|
g|-13--12--13--11-9-----14-16-----------14-16-14-12-14-14-16-14-12----14---12---|
D|------------------------------------------------------------------14----14----|
A|------------------------------------------------------------------------------|
E|------------------------------------------------------------------------------|
b b b b b b tr b ~~~~~~~
e|----------------------------------------------------------------------------|
b|-------------------------------3-0-------------------------10-12--8---------|
g|-2-4-----2-4-2-4-2-4-2-4---2-0-----2-0-----0------------------------9-------|
D|---------------------------------------2-0---0---2-----0--------------------|
A|----------------------------------------------------------------------------|
E|----------------------------------------------------------------------------|
b r b r b b
e|-------12----------------------------------------------15-17-15-17-15-12-14-|
b|-12-15----12--15--17--17---17-15-12-14-15------14--12-----------------------|
g|----------------------------------------------------------------------------|
D|----------------------------------------------------------------------------|
A|----------------------------------------------------------------------------|
E|----------------------------------------------------------------------------|
b~~~~ b
e|15-17-15-14-12----12----------------------------------------------------12--|
b|---------------15----15-12----12----------12-------------------------12-----|
g|---------------------------14----14-14-16----15-12-14-12----12-14-16--------|
D|---------------------------------------------------------14-----------------|
A|----------------------------------------------------------------------------|
E|----------------------------------------------------------------------------|
~~~~~~ ~~~~~ b b
e|------------------------------------------------------|
b|15-12-------------------------------------15----15----|
g|------15-14-12----14----12------9----14-16-14-16------|
D|---------------14----14-------------------------------|
A|------------------------------------------------------|
E|------------------------------------------------------|


-----------------------------------------------------------------------------


Song: Live Wire

Intro:


E-----------|
B-----------|
G--2-----4--| Play this
D--2--2--4--| 4 times.
A--0--2--2--|
E-----0-----|

E--------|--------|
B--------|--------|
G-----4--|-----4--| Play this
D--2--4--|--2--4--| 2 times.
A--2--2--|--2--2--|
E--0-----|--0-----|

Verse:


E--------------|--------------|
B--------------|--------------|
G--2-----4--4--|--2-----4--4--| Play this
D--2--2--4--4--|--2--2--4--4--| 4 times.
A--0--2--2--2--|--0--2--2--2--|
E-----0--------|-----0--------|


Chorus:


E--3--|--3--3--|-----|--------|--3--|--3--3--|
B--3--|--3--3--|-----|--------|--3--|--3--3--|
G--0--|--0--0--|--4--|--4--4--|--0--|--0--0--|
D--0--|--0--0--|--4--|--4--4--|--0--|--0--0--|
A--2--|--2--2--|--2--|--2--2--|--2--|--2--2--|
E--3--|--3--3--|-----|--------|--3--|--3--3--|

E--------------------|--------------------|
B--------------------|--------------------|
G--------------------|--------------------|
D--4-4-4-4--4-4-4-4--|--4-4-4-4--4-4-4-4--|
A--4-4-4-4--4-4-4-4--|--4-4-4-4--4-4-4-4--|
E--2-2-2-2--2-2-2-2--|--2-2-2-2--2-2-2-2--|

Verse:


E-----|--------------|
B-----|--------------|
G--4--|--2-----4--4--|
D--4--|--2--2--4--4--|
A--2--|--0--2--2--2--|
E-----|-----0--------|

E--------------|--------------|
B--------------|--------------|
G--2-----4--4--|--2-----4--4--| Play this
D--2--2--4--4--|--2--2--4--4--| 3 times.
A--0--2--2--2--|--0--2--2--2--|
E-----0--------|-----0--------|

E--------------|--------|
B--------------|--------|
G--2-----4--4--|-----4--| Play this
D--2--2--4--4--|--2--4--| 4 times.
A--0--2--2--2--|--2--2--|
E-----0--------|--0-----|

E----------------------|
B----------------------|
G--4--4----4--4--4--4--|
D--4--4----4--4--4--4--|
A--2--2----2--2--2--2--|
E----------------------|

2nd Chorus:


E--3--|--3--3--|-----|--------|--3--|--3--3--|
B--3--|--3--3--|-----|--------|--3--|--3--3--|
G--0--|--0--0--|--4--|--4--4--|--0--|--0--0--|
D--0--|--0--0--|--4--|--4--4--|--0--|--0--0--|
A--2--|--2--2--|--2--|--2--2--|--2--|--2--2--|
E--3--|--3--3--|-----|--------|--3--|--3--3--|

E--------------------|--------------------|
B--------------------|--------------------|
G--------------------|--------------------|
D--4-4-4-4--4-4-4-4--|--4-4-4-4--4-4-4-4--|
A--4-4-4-4--4-4-4-4--|--4-4-4-4--4-4-4-4--|
E--2-2-2-2--2-2-2-2--|--2-2-2-2--2-2-2-2--|

Pre-Solo:


E--------------------|--------------------|
B--------------------|--------------------|
G-----------------7--|-----------------7--| Play this
D--9--7--9--7--9-----|--9--7--9--7--9-----| 4 times.
A--------------------|--------------------|
E--------------------|--------------------|

Solo:


Guitar 1


E--------------------|--------------------|
B--------------------|--------------------|
G-----------------7--|-----------------7--| Play this
D--9--7--9--7--9--7--|--9--7--9--7--9--7--| 3 times.
A--9--7--9--7--9--5--|--9--7--9--7--9--5--|
E--7--5--7--5--7-----|--7--5--7--5--7-----|

E--------------------|-----------------------|
B--------------------|-----------------------|
G-----------------7--|-----------------------|
D--9--7--9--7--9--7--|--9--7--9--7--9--7--9--|
A--9--7--9--7--9--5--|--9--7--9--7--9--7--9--|
E--7--5--7--5--7-----|--7--5--7--5--7--5--7--|

E--3--|--3--3--|-----|--------|--3--|--3--3--|
B--3--|--3--3--|-----|--------|--3--|--3--3--|
G--0--|--0--0--|--4--|--4--4--|--0--|--0--0--|
D--0--|--0--0--|--4--|--4--4--|--0--|--0--0--|
A--2--|--2--2--|--2--|--2--2--|--2--|--2--2--|
E--3--|--3--3--|-----|--------|--3--|--3--3--|

E--------------------|--------------------|
B--------------------|--------------------|
G--------------------|--------------------|
D--4-4-4-4--4-4-4-4--|--4-4-4-4--4-4-4-4--|
A--4-4-4-4--4-4-4-4--|--4-4-4-4--4-4-4-4--|
E--2-2-2-2--2-2-2-2--|--2-2-2-2--2-2-2-2--|

E--------------|--------------|
B--------------|--------------|
G--2-----4--4--|--2-----4--4--| Play this
D--2--2--4--4--|--2--2--4--4--| 2 times.
A--0--2--2--2--|--0--2--2--2--|
E-----0--------|-----0--------|


Guitar 2


E----7---7~-|-7-5------------------|-----------12~-|-12h14p12------|
B-7~---7----|-----7-5--------------|-7~-/10-12-----|---------15p12-|
G-----------|---------7-4---4-7-7~-|---------------|---------------|
D-----------|-------------7--------|---------------|---------------|
A-----------|----------------------|---------------|---------------|
E-----------|----------------------|---------------|---------------|

E----------------------|----------|----14-12h13h14~-|-14-13-12-14~-|
B----12-15~--12-14-15~-|----15-12-|-15--------------|--------------|
G-14-------------------|-14-------|-----------------|--------------|
D----------------------|----------|-----------------|--------------|
A----------------------|----------|-----------------|--------------|
E----------------------|----------|-----------------|--------------|

E----------19-|-19p17---------------------|-22b-22b-20-22b-20------|
B-19-18-17----|-------19p17---------------|------------------22-19-|
G-------------|-------------19-16-19-19~\-|------------------------|
D-------------|---------------------------|------------------------|
A-------------|---------------------------|------------------------|
E-------------|---------------------------|------------------------|

E-------------------|-------------|
B-22-19-22-19-17-19-|-19-17----19-|
G-------------------|-------19----|
D-------------------|-------------|
A-------------------|-------------|
E-------------------|-------------|

E--------------------|--------------------|
B--------------------|--------------------|
G-----------------7--|-----------------7--| Play this
D--9--7--9--7--9-----|--9--7--9--7--9-----| 5 times.
A--------------------|--------------------|
E--------------------|--------------------|

E--------------|------ ---|
B--------------|-12- Let Ring -|
G--------------|---- Through -|
D-9- Let Ring -|---- The Next -|
A--------------|---- Verse -|
E--------------|------ ---|

Verse:


E--------------|--------------|
B--------------|--------------|
G--2-----4--4--|--2-----4--4--| Play this
D--2--2--4--4--|--2--2--4--4--| 2 times.
A--0--2--2--2--|--0--2--2--2--|
E-----0--------|-----0--------|

E--------------|--------|
B--------------|--------|
G--2-----4--4--|-----4--| Play this
D--2--2--4--4--|--2--4--| 4 times.
A--0--2--2--2--|--2--2--|
E-----0--------|--0-----|

E----------------------|
B----------------------|
G--4--4----4--4--4--4--|
D--4--4----4--4--4--4--|
A--2--2----2--2--2--2--|
E----------------------|

Chorus & Outro:


Guitar 1


E--3--|--3--3--|-----|--------|--3--|--3--3--|
B--3--|--3--3--|-----|--------|--3--|--3--3--|
G--0--|--0--0--|--4--|--4--4--|--0--|--0--0--|
D--0--|--0--0--|--4--|--4--4--|--0--|--0--0--|
A--2--|--2--2--|--2--|--2--2--|--2--|--2--2--|
E--3--|--3--3--|-----|--------|--3--|--3--3--|

E--------------------|--------------------|
B--------------------|--------------------|
G--------------------|--------------------|
D--4-4-4-4--4-4-4-4--|--4-4-4-4--4-4-4-4--|
A--4-4-4-4--4-4-4-4--|--4-4-4-4--4-4-4-4--|
E--2-2-2-2--2-2-2-2--|--2-2-2-2--2-2-2-2--|

E--3--|--3--3--|-----|--------|
B--3--|--3--3--|-----|--------|
G--0--|--0--0--|--4--|--4--4--| Play this
D--0--|--0--0--|--4--|--4--4--| 6 times.
A--2--|--2--2--|--2--|--2--2--|
E--3--|--3--3--|-----|--------|

E--------------------|--------------------|
B--------------------|--------------------|
G--------------------|--4-4-4-4--4-4-4-4--| Play this
D--5-5-5-5--5-5-5-5--|--4-4-4-4--4-4-4-4--| 4 times.
A--5-5-5-5--5-5-5-5--|--2-2-2-2--2-2-2-2--|
E--3-5-3-3--3-3-3-3--|--------------------|


Guitar 2


E-------------|------------|------------|
B-12-12~-12\0-|-12-12~-12\-|-12-12~-12\-|
G-------------|------------|------------|
D-------------|------------|------------|
A-------------|------------|------------|
E-------------|------------|------------|

E-----------------|---------------------|
B-12-10-----------|-12-14-15~-15\14\12~-|
G-------11-9------|---------------------|
D------------12~\-|---------------------|
A-----------------|---------------------|
E-----------------|---------------------|

E----------------------|-19----17-19-19-|
B-15h17-19--19-19--19~-|----19----------|
G----------------------|----------------|
D----------------------|----------------|
A----------------------|----------------|
E----------------------|----------------|

E-19-19~-19----19~-|-19----19~-19-17--------17--------|
B-----------19-----|----19-----------19-19~----19-19~-|
G------------------|----------------------------------|
D------------------|----------------------------------|
A------------------|----------------------------------|
E------------------|----------------------------------|

E-19h22p19--------------------------------------------|
B----------22-19-19~-19-17-17~--------------17-19-----|
G------------------------------19-16--16-19-------19~-|
D-----------------------------------------------------|
A-----------------------------------------------------|
E-----------------------------------------------------|

E----19-------19-|-19-------22-19-|-22-17-19-22-17-19-|
B-19----19-22----|----19-22-------|-------------------|
G----------------|----------------|-------------------|
D----------------|----------------|-------------------|
A----------------|----------------|-------------------|
E----------------|----------------|-------------------|

E-22-17-19-22-17-19--22-17-19-22-17-19--22-17-19--|
B-------------------------------------------------|
G-------------------------------------------------|
D-------------------------------------------------|
A-------------------------------------------------|
E-------------------------------------------------|

E-22-17-19--22-17-19-22-17-19--22-19-17----|----22b-22b-|
B---------------------------------------19-|-19---------|
G------------------------------------------|------------|
D------------------------------------------|------------|
A------------------------------------------|------------|
E------------------------------------------|------------|

E-22p21h22-17p15-------------------------|------------|
B----------------17p15-------------------|------------|
G----------------------17p16p14-17--14~--|-17-17~-14~-|
D----------------------------------------|------------|
A----------------------------------------|------------|
E----------------------------------------|------------|

E----------------------|
B----------------------|
G-17-17-14~--17-17-14~-| Play this
D----------------------| 8 times.
A----------------------|
E----------------------|

E----------------------------------|
B----17-15-----17-15-----17-15-----|
G-16-------16~-------16~-------16~-|
D----------------------------------|
A- Play This While The Song Fades -|
E--------------- Out --------------|


----------------------------------------------------------------------------

Song:T.N.T

INTRO
E-|---|----|-----------------------|-----------------|
B-|---|----|-----------------------|-----------------|
G-|---|----|----------2------2-----|-----------------|
D-|-2-|----|-2-----0--2---0--2--0--|-----------------|
A-|-2-|----|-2-----0--0---0--0--0--|-----------------|
E-|-0-|----|-0-----3------3(b)--3--|-----------------|
L.R. P.M.

VERSE (SAME AS INTRO)


PLAY THIS PART AFTER CHORUS
CHORUS IS PLAYED FOR THE LAST TIME
E--|----------|--------------------------------------|
B--|----------|--------------------------------------|
G--|--2-------|------2-------------------------------|
D--|--2--0--2-|--0---2-------------------------------|
A--|--0--0--2-|--0---0-------------------------------|
E--|-----3--O-|--3-----------------------------------|
L.R.

THE SOLO AT THE END OF THE SONG IS PLAYED IN E MINOR
PENTATONIC.

----------------------------------------------------------------------------


Song:Rocker

Intro
E||-----------|------------------------|------------------------|
B||-----------|------------------------|------------------------|
G||-----------|-----2------------------|-----2------------------|
D||--------0h-|--2--2--4----2----4--0h-|--2--2--4----2----4--0h-|
A||--------0--|-----0--0----0----0--0--|-----0--0----0----0--0--|
E||-----------|------------------------|------------------------|

------------------------|------------------------|------------------------|
------------------------|------------------------|------------------------|
-----2------------------|-----2---------------0h-|--2--2--4----2----4--0h-|
--2--2--4----2----4--0h-|--2--2--4----2----4--0--|-----0--0----0----0--0--|
-----0--0----0----0--0--|-----0--0----0----0-----|------------------------|
------------------------|------------------------|------------------------|

------------------------|------------------------|------------------------|
------------------------|------------------------|------------------------|
--2--2--4----2----4-----|-----2------------------|-----2------------------|
-----0--0----0----0--0h-|--2--2--4----2----4--0h-|--2--2--4----2----4-----|
---------------------0--|-----0--0----0----0--0--|-----0--0----0----0--0h-|
------------------------|------------------------|---------------------0--|

------------------------|------------------------|------------------------|
------------------------|------------------------|------------------------|
------------------------|------------------------|-----2------------------|
------------------------|---------------------0h-|--2--2--4----2----4--0h-|
--2--2--4----2----4--0h-|--2--2--4----2----4--0--|-----0--0----0----0--0--|
-----0--0----0----0--0--|-----0--0----0----0-----|------------------------|

------------------------|------------------------|------------------------|
------------------------|------------------------|------------------------|
-----2------------------|-----2------------------|-----2------------------|
--2--2--4----2----4--0h-|--2--2--4----2----4--0h-|--2--2--4----2----4--0h-|
-----0--0----0----0--0--|-----0--0----0----0--0--|-----0--0----0----0--0--|
------------------------|------------------------|------------------------|

------------------------|------------------------|------------------------|
------------------------|------------------------|------------------------|
-----2------------------|-----2---------------0h-|--2--2--4----2----4--0h-|
--2--2--4----2----4--0h-|--2--2--4----2----4--0--|-----0--0----0----0--0--|
-----0--0----0----0--0--|-----0--0----0----0-----|------------------------|
------------------------|------------------------|------------------------|

------------------------|------------------------|------------------------|
------------------------|------------------------|------------------------|
--2--2--4----2----4-----|-----2------------------|-----2------------------|
-----0--0----0----0--0h-|--2--2--4----2----4--0h-|--2--2--4----2----4-----|
---------------------0--|-----0--0----0----0--0--|-----0--0----0----0--0h-|
------------------------|------------------------|---------------------0--|

------------------------|------------------------|------------------------|
------------------------|------------------------|------------------------|
------------------------|------------------------|-----2------------------|
------------------------|---------------------0h-|--2--2--4----2----4--0h-|
--2--2--4----2----4--0h-|--2--2--4----2----4--0--|-----0--0----0----0--0--|
-----0--0----0----0--0--|-----0--0----0----0-----|------------------------|

------------------------|-------------------|-------------------|
------------------------|-------------------|-------------------|
-----2------------------|--2----------------|--2----------------|
--2--2--4----2----4--0h-|--2----------------|--2----------------|
-----0--0----0----0--0--|--0----------------|--0----------------|
------------------------|-------------------|-------------------|

-------------------|-------------------|------------------------|
-------------------|-------------------|------------------------|
--2----------------|--2----------------|--2--2--4----2----4--0h-|
--2----------------|--2----------------|-----0--0----0----0--0--|
--0----------------|--0----------------|------------------------|
-------------------|-------------------|------------------------|

------------------------|------------------------|------------------------|
------------------------|------------------------|------------------------|
--2--2--4----2----4-----|-----2------------------|-----2------------------|
-----0--0----0----0--0h-|--2--2--4----2----4--0h-|--2--2--4----2----4-----|
---------------------0--|-----0--0----0----0--0--|-----0--0----0----0--0h-|
------------------------|------------------------|---------------------0--|

------------------------|------------------------|------------------------|
------------------------|------------------------|------------------------|
------------------------|------------------------|-----2------------------|
------------------------|---------------------0h-|--2--2--4----2----4--0h-|
--2--2--4----2----4--0h-|--2--2--4----2----4--0--|-----0--0----0----0--0--|
-----0--0----0----0--0--|-----0--0----0----0-----|------------------------|

------------------------|------------------------|------------------------|
------------------------|------------------------|------------------------|
-----2------------------|-----2------------------|-----2------------------|
--2--2--4----2----4--0h-|--2--2--4----2----4--0h-|--2--2--4----2----4--0h-|
-----0--0----0----0--0--|-----0--0----0----0--0--|-----0--0----0----0--0--|
------------------------|------------------------|------------------------|

------------------------|------------------------|------------------------|
------------------------|------------------------|------------------------|
-----2------------------|-----2---------------0h-|--2--2--4----2----4--0h-|
--2--2--4----2----4--0h-|--2--2--4----2----4--0--|-----0--0----0----0--0--|
-----0--0----0----0--0--|-----0--0----0----0-----|------------------------|
------------------------|------------------------|------------------------|

------------------------|------------------------|------------------------|
------------------------|------------------------|------------------------|
--2--2--4----2----4-----|-----2------------------|-----2------------------|
-----0--0----0----0--0h-|--2--2--4----2----4--0h-|--2--2--4----2----4-----|
---------------------0--|-----0--0----0----0--0--|-----0--0----0----0--0h-|
------------------------|------------------------|---------------------0--|

------------------------|------------------------|------------------------|
------------------------|------------------------|------------------------|
------------------------|------------------------|-----2------------------|
------------------------|---------------------0h-|--2--2--4----2----4--0h-|
--2--2--4----2----4--0h-|--2--2--4----2----4--0--|-----0--0----0----0--0--|
-----0--0----0----0--0--|-----0--0----0----0-----|------------------------|

------------------------|------------------------|------------------------|
------------------------|------------------------|------------------------|
-----2------------------|-----2------------------|-----2------------------|
--2--2--4----2----4--0h-|--2--2--4----2----4--0h-|--2--2--4----2----4--0h-|
-----0--0----0----0--0--|-----0--0----0----0--0--|-----0--0----0----0--0--|
------------------------|------------------------|------------------------|

------------------------|------------------------|------------------------|
------------------------|------------------------|------------------------|
-----2------------------|-----2---------------0h-|--2--2--4----2----4--0h-|
--2--2--4----2----4--0h-|--2--2--4----2----4--0--|-----0--0----0----0--0--|
-----0--0----0----0--0--|-----0--0----0----0-----|------------------------|
------------------------|------------------------|------------------------|

solo
------------------------|------------------------|------------------------|
------------------------|------------------------|------------------------|
--2--2--4----2----4-----|-----2------------------|-----2------------------|
-----0--0----0----0--0h-|--2--2--4----2----4--0h-|--2--2--4----2----4-----|
---------------------0--|-----0--0----0----0--0--|-----0--0----0----0--0h-|
------------------------|------------------------|---------------------0--|

------------------------|------------------------|------------------------|
------------------------|------------------------|------------------------|
------------------------|------------------------|-----2------------------|
------------------------|---------------------0h-|--2--2--4----2----4--0h-|
--2--2--4----2----4--0h-|--2--2--4----2----4--0--|-----0--0----0----0--0--|
-----0--0----0----0--0--|-----0--0----0----0-----|------------------------|

------------------------|-------------------|-------------------|
------------------------|-------------------|-------------------|
-----2------------------|--2----------------|--2----------------|
--2--2--4----2----4--0h-|--2----------------|--2----------------|
-----0--0----0----0--0--|--0----------------|--0----------------|
------------------------|-------------------|-------------------|

-------------------|-------------------|------------------------|
-------------------|-------------------|------------------------|
--2----------------|--2----------------|--2--2--4----2----4--0h-|
--2----------------|--2----------------|-----0--0----0----0--0--|
--0----------------|--0----------------|------------------------|
-------------------|-------------------|------------------------|

------------------------|------------------------|------------------------|
------------------------|------------------------|------------------------|
--2--2--4----2----4-----|-----2------------------|-----2------------------|
-----0--0----0----0--0h-|--2--2--4----2----4--0h-|--2--2--4----2----4-----|
---------------------0--|-----0--0----0----0--0--|-----0--0----0----0--0h-|
------------------------|------------------------|---------------------0--|

------------------------|------------------------|------------------------|
------------------------|------------------------|------------------------|
------------------------|------------------------|-----2------------------|
------------------------|---------------------0h-|--2--2--4----2----4--0h-|
--2--2--4----2----4--0h-|--2--2--4----2----4--0--|-----0--0----0----0--0--|
-----0--0----0----0--0--|-----0--0----0----0-----|------------------------|

------------------------|------------------------|------------------------|
------------------------|------------------------|------------------------|
-----2------------------|-----2------------------|-----2------------------|
--2--2--4----2----4--0h-|--2--2--4----2----4--0h-|--2--2--4----2----4--0h-|
-----0--0----0----0--0--|-----0--0----0----0--0--|-----0--0----0----0--0--|
------------------------|------------------------|------------------------|

------------------------|------------------------|------------------------|
------------------------|------------------------|------------------------|
-----2------------------|-----2---------------0h-|--2--2--4----2----4--0h-|
--2--2--4----2----4--0h-|--2--2--4----2----4--0--|-----0--0----0----0--0--|
-----0--0----0----0--0--|-----0--0----0----0-----|------------------------|
------------------------|------------------------|------------------------|

------------------------|------------------------|------------------------|
------------------------|------------------------|------------------------|
--2--2--4----2----4-----|-----2------------------|-----2------------------|
-----0--0----0----0--0h-|--2--2--4----2----4--0h-|--2--2--4----2----4-----|
---------------------0--|-----0--0----0----0--0--|-----0--0----0----0--0h-|
------------------------|------------------------|---------------------0--|

------------------------|------------------------|------------------------|
------------------------|------------------------|------------------------|
------------------------|------------------------|-----2------------------|
------------------------|---------------------0h-|--2--2--4----2----4--0h-|
--2--2--4----2----4--0h-|--2--2--4----2----4--0--|-----0--0----0----0--0--|
-----0--0----0----0--0--|-----0--0----0----0-----|------------------------|

------------------------|------------------------|------------------------|
------------------------|------------------------|------------------------|
-----2------------------|-----2------------------|-----2------------------|
--2--2--4----2----4--0h-|--2--2--4----2----4--0h-|--2--2--4----2----4--0h-|
-----0--0----0----0--0--|-----0--0----0----0--0--|-----0--0----0----0--0--|
------------------------|------------------------|------------------------|

------------------------|------------------------|------------------------|
------------------------|------------------------|------------------------|
-----2------------------|-----2---------------0h-|--2--2--4----2----4--0h-|
--2--2--4----2----4--0h-|--2--2--4----2----4--0--|-----0--0----0----0--0--|
-----0--0----0----0--0--|-----0--0----0----0-----|------------------------|
------------------------|------------------------|------------------------|

------------------------|------------------------|------------------------|
------------------------|------------------------|------------------------|
--2--2--4----2----4-----|-----2------------------|-----2------------------|
-----0--0----0----0--0h-|--2--2--4----2----4--0h-|--2--2--4----2----4-----|
---------------------0--|-----0--0----0----0--0--|-----0--0----0----0--0h-|
------------------------|------------------------|---------------------0--|

------------------------|------------------------|------------------------|
------------------------|------------------------|------------------------|
------------------------|------------------------|-----2------------------|
------------------------|---------------------0h-|--2--2--4----2----4--0h-|
--2--2--4----2----4--0h-|--2--2--4----2----4--0--|-----0--0----0----0--0--|
-----0--0----0----0--0--|-----0--0----0----0-----|------------------------|

------------------------|------------------------|------------------------|
------------------------|------------------------|------------------------|
-----2------------------|-----2------------------|-----2------------------|
--2--2--4----2----4--0h-|--2--2--4----2----4--0h-|--2--2--4----2----4--0h-|
-----0--0----0----0--0--|-----0--0----0----0--0--|-----0--0----0----0--0--|
------------------------|------------------------|------------------------|

------------------------|------------------------|------------------------|
------------------------|------------------------|------------------------|
-----2------------------|-----2---------------0h-|--2--2--4----2----4--0h-|
--2--2--4----2----4--0h-|--2--2--4----2----4--0--|-----0--0----0----0--0--|
-----0--0----0----0--0--|-----0--0----0----0-----|------------------------|
------------------------|------------------------|------------------------|

------------------------|------------------------|------------------------|
------------------------|------------------------|------------------------|
--2--2--4----2----4-----|-----2------------------|-----2------------------|
-----0--0----0----0--0h-|--2--2--4----2----4--0h-|--2--2--4----2----4-----|
---------------------0--|-----0--0----0----0--0--|-----0--0----0----0--0h-|
------------------------|------------------------|---------------------0--|

------------------------|------------------------|-------------------|
------------------------|------------------------|-------------------|
------------------------|------------------------|--2----------------|
------------------------|---------------------0h-|--2----------------|
--2--2--4----2----4--0h-|--2--2--4----2----4--0--|--0----------------|
-----0--0----0----0--0--|-----0--0----0----0-----|-------------------|


------------------|------------------|------------------|-------------------|
------------------|------------------|------------------|-------------------|
------------------|------------------|------------------|--2----------------|
------------------|------------------|------------------|--2----------------|
------------------|------------------|------------------|--0----------------|
------------------|------------------|------------------|-------------------|

-------------------|--------------------|----------------------|
-------------------|--------------------|----------------------|
--2----------------|--2--------2--------|--2----2----2----2----|
--2----------------|--2--------2--------|--2----2----2----2----|
--0----------------|--0--------0--------|--0----0----0----0----|
-------------------|--------------------|----------------------|

14x
|--------------------------||------------------------|------------------------|
|--------------------------||------------------------|------------------------|
|*------------------------*||------------------------|------------------------|
|*--2--2--4----2----4--0h-*||--2--2--4----2----4--0h-|--2--2--4----2----4--0h-|
|------0--0----0----0--0---||-----0--0----0----0--0--|-----0--0----0----0--0--|
|--------------------------||------------------------|------------------------|

------------------------|------------------------|------------------------|
------------------------|------------------------|------------------------|
------------------------|------------------------|------------------------|
--2--2--4----2----4--0h-|--2--2--4----2----4--0h-|--2--2--4----2----4--0h-|
-----0--0----0----0--0--|-----0--0----0----0--0--|-----0--0----0----0--0--|
------------------------|------------------------|------------------------|

------------------------|------------------------|------------------------|
------------------------|------------------------|------------------------|
------------------------|------------------------|------------------------|
--2--2--4----2----4--0h-|--2--2--4----2----4--0h-|--2--2--4----2----4--0h-|
-----0--0----0----0--0--|-----0--0----0----0--0--|-----0--0----0----0--0--|
------------------------|------------------------|------------------------|

------------------------|------------------------|------------------------|
------------------------|------------------------|------------------------|
------------------------|------------------------|------------------------|
--2--2--4----2----4--0h-|--2--2--4----2----4--0h-|--2--2--4----2----4--0h-|
-----0--0----0----0--0--|-----0--0----0----0--0--|-----0--0----0----0--0--|
------------------------|------------------------|------------------------|

------------------------|------------------------|------------------------|
------------------------|------------------------|------------------------|
------------------------|------------------------|------------------------|
--2--2--4----2----4--0h-|--2--2--4----2----4--0h-|--2--2--4----2----4--0h-|
-----0--0----0----0--0--|-----0--0----0----0--0--|-----0--0----0----0--0--|
------------------------|------------------------|------------------------|

------------------------|------------------------|------------------------|
------------------------|------------------------|------------------------|
------------------------|------------------------|------------------------|
--2--2--4----2----4--0h-|--2--2--4----2----4--0h-|--2--2--4----2----4--0h-|
-----0--0----0----0--0--|-----0--0----0----0--0--|-----0--0----0----0--0--|
------------------------|------------------------|------------------------|

------------------------|------------------------|------------------------|
------------------------|------------------------|------------------------|
------------------------|------------------------|------------------------|
--2--2--4----2----4--0h-|--2--2--4----2----4--0h-|--2--2--4----2----4--0h-|
-----0--0----0----0--0--|-----0--0----0----0--0--|-----0--0----0----0--0--|
------------------------|------------------------|------------------------|


*

«  Июнь 2018  »
ПнВтСрЧтПтСбВс
    123
45678910
11121314151617
18192021222324
252627282930

*

ПАРТНЕРЫ:


Fan Site Geordie 2008 - 2018