GEORDIE - The Honey Roll


The Honey Roll Тип: табулатура


The Honey Roll - AC/DC
Ballbreaker

e|---------------------------------------------|
b|---------------------------------------------|
g|---------------------------------------------|
D|----------2--------------2-------------------|
A|-----1h2------------1h2----------------------|
E|-------------------------------3--2--0-------|

e|------------------------------------------------------------------|
b|------------------------------------------------------------------|
g|---------------------------------------------------------------2--|
D|----2---------2----------------------------------2-------------2--|
A|--------1h2-------------------7----------1h2-------------------0--|
E|-----------------------4h5--------------------------------\4------| Repeat 3X

e|---------------------------------------------|
b|---------------------------------------------|
g|---------------------------------------------|
D|----------2--------------2-------------------|
A|-----1h2------------1h2----------------------|
E|-------------------------------3--2--0-------|

e|------------------------------------------------------------------|
b|------------------------------------------------------------------|
g|------------------------------------------------------------------|
D|----2---------2----------------------------------2----------------|
A|--------1h2-------------------7----------1h2----------------------|
E|-----------------------4h5----------------------------3-2-0-------|

e|------------------------------------------------------------------|
b|------------------------------------------------------------------|
g|------------------------------------2--------2--------------------|
D|----2--2-x----------------2-2-2-----2-----2--2--------------------|
A|----2--2-x----------------2-2-2-----0-----2--0--repeat riff-------|
E|----0--0-x---0--3--2--0---0-0-0--3-----3--0---------several times-|

thats all i know enjoy.


*

«  Ноябрь 2017  »
ПнВтСрЧтПтСбВс
  12345
6789101112
13141516171819
20212223242526
27282930

*

ПАРТНЕРЫ:


Fan Site Geordie 2008 - 2017