GEORDIE - The Furor


The Furor Тип: басс табулатура


AC/DC-The Furor
Ballbreaker (1995)
Transcribed by: playinbass1432
Email: playinbass1432@hotmail.com

Drop D Tuning

Intro: (After 4 bars rest)

D
G|-----------------|-----------------|-----------------|-----------------|
D|-----------------|-----------------|-----------------|-----------------|
A|-5-5-5-5-5-5-5-5-|-5-5-5-5-5-5-5-5-|-5-5-5-5-5-5-5-5-|-5-5-5-5-5-5-5-5-|
D|-----------------|-----------------|-----------------|-----------------|

D G
G|-----------------|-----------------|-----------------|-----------------|
D|-----------------|-----------------|-----------------|-----------------|
A|-5-5-5-5-5-5-5-5-|-5-5-5-5-5-5-5-5-|-----------------|-----------------|
D|-----------------|-----------------|-5---------------|-5-5-5-5-5-5-5-5-|

Pre Verse 1:

D
G|-----------------|-----------------|-----------------|-----------------|
D|-----------------|-----------------|-----------------|-----------------|
A|-----------------|-----------------|-----------------|-----------------|
D|-0-0-0-0-0-0-0-0-|-0-0-0-0-0-0-0-0-|-0-0-0-0-0-0-0-0-|-0-0-0-0-0-0-0-0-|

D G F E
G|-----------------|-----------------|-----------------|-----------------|
D|-----------------|-----------------|-----------------|-----------------|
A|-----------------|-----------------|-----------------|-----------------|
D|-0-0-0-0-0-0-0-0-|-0-0-0-0-0-0-0-0-|-5-5-5-5-5-5-5-5-|-5-5-5-5-3-x-2-2-|

Verse 1:

D C Bb D C Bb
G|-----------------|-----------------|-----------------|-----------------|
D|-----------------|-----------------|-----------------|-----------------|
A|-5-5-5-5-3-3-3-3-|-1-1-1-1-1-1-1-1-|-5-5-5-5-3-3-3-3-|-1-1-1-1-1-1-1-1-|
D|-----------------|-----------------|-----------------|-----------------|

D C Bb G
G|-----------------|-----------------|-----------------|-----------------|
D|-----------------|-----------------|-----------------|-----------------|
A|-5-5-5-5-3-3-3-3-|-1-1-1-1-1-1-1-1-|-----------------|-----------------|
D|-----------------|-----------------|-5-5-5-5-5-5-5-5-|-5-5-5-5-5-5-5-5-|

D C Bb D C Bb
G|-----------------|-----------------|-----------------|-----------------|
D|-----------------|-----------------|-----------------|-----------------|
A|-5-5-5-5-3-3-3-3-|-1-1-1-1-1-1-1-1-|-5-5-5-5-3-3-3-3-|-1-1-1-1-1-1-1-1-|
D|-----------------|-----------------|-----------------|-----------------|

D C Bb G
G|-----------------|-----------------|-----------------|-----------------|
D|-----------------|-----------------|-----------------|-----------------|
A|-5-5-5-5-3-3-3-3-|-1-1-1-1-1-1-1-1-|-----------------|-----------------|
D|-----------------|-----------------|-5-5-5-5-5-5-5-5-|-5-5-5-5-5-5-5-5-|

Chorus 1:

D Bb C G D Bb C G
G|-----------------|-----------------|-----------------|-----------------|
D|-----------------|-----------------|-----------------|-----------------|
A|-5-5-5-5-1-1-1-1-|-3-3-3-3---------|-5-5-5-5-1-1-1-1-|-3-3-3-3---------|
D|-----------------|---------5-5-5-5-|-----------------|---------5-5-5-5-|

Pre Verse 2:

D
G|-----------------|-----------------|-----------------|-----------------|
D|-----------------|-----------------|-----------------|-----------------|
A|-----------------|-----------------|-----------------|-----------------|
D|-0-0-0-0-0-0-0-0-|-0-0-0-0-0-0-0-0-|-0-0-0-0-0-0-0-0-|-0-0-0-0-0-0-0-0-|

Verse 2:

D C Bb D C Bb
G|-----------------|-----------------|-----------------|-----------------|
D|-----------------|-----------------|-----------------|-----------------|
A|-5-5-5-5-3-3-3-3-|-1-1-1-1-1-1-1-1-|-5-5-5-5-3-3-3-3-|-1-1-1-1-1-1-1-1-|
D|-----------------|-----------------|-----------------|-----------------|

D C Bb G
G|-----------------|-----------------|-----------------|-----------------|
D|-----------------|-----------------|-----------------|-----------------|
A|-5-5-5-5-3-3-3-3-|-1-1-1-1-1-1-1-1-|-----------------|-----------------|
D|-----------------|-----------------|-5-5-5-5-5-5-5-5-|-5-5-5-5-5-5-5-5-|

Chorus 2:

D Bb C G D Bb C G
G|-----------------|-----------------|-----------------|-----------------|
D|-----------------|-----------------|-----------------|-----------------|
A|-5-5-5-5-1-1-1-1-|-3-3-3-3---------|-5-5-5-5-1-1-1-1-|-3-3-3-3---------|
D|-----------------|---------5-5-5-5-|-----------------|---------5-5-5-5-|

D Bb C G D Bb C G
G|-----------------|-----------------|-----------------|-----------------|
D|-----------------|-----------------|-----------------|-----------------|
A|-5-5-5-5-1-1-1-1-|-3-3-3-3---------|-5-5-5-5-1-1-1-1-|-3-3-3-3---------|
D|-----------------|---------5-5-5-5-|-----------------|---------5-5-5-5-|

Bridge:

D F G
G|-----------------|-----------------|-----------------|-----------------|
D|-----------------|-----------------|-----------------|-----------------|
A|-5-5-5-5-5-5-5-5-|-5-5-5-5-5-5-5-5-|-5-5-5-5-5-5-5-5-|-5-5-5-5---------|
D|-----------------|-----------------|-----------------|---------3---5--0|

Guitar Solo:

D C Bb D C G
G|-----------------|-----------------|-----------------|-----------------|
D|-----------------|-----------------|-----------------|-----------------|
A|-5-5-5-5-3-3-3-3-|-1-1-1-1-1-1-1-1-|-5-5-5-5-3-3-3-3-|-----------------|
D|-----------------|-----------------|-----------------|-5-5-5-5-5-5-5-5-|

D C Bb
G|-----------------|-----------------|-----------------|-----------------|
D|-----------------|-----------------|-----------------|-----------------|
A|-5-5-5-5-3-3-3-3-|-1-1-1-1-1-1-1-1-|-1-1-1-1-1-1-1-1-|-3-3-3-3-3-3-3-3-|
D|-----------------|-----------------|-----------------|-----------------|

Pre Chorus 3:

D
G|-----------------|-----------------|-----------------|-----------------|
D|-----------------|-----------------|-----------------|-----------------|
A|-----------------|-----------------|-----------------|-----------------|
D|-0-0-0-0-0-0-0-0-|-0-0-0-0-0-0-0-0-|-0-0-0-0-0-0-0-0-|-0-0-0-0-0-0-0-0-|

Chorus 3:

D Bb C G D Bb C G
G|-----------------|-----------------|-----------------|-----------------|
D|-----------------|-----------------|-----------------|-----------------|
A|-5-5-5-5-1-1-1-1-|-3-3-3-3---------|-5-5-5-5-1-1-1-1-|-3-3-3-3---------|
D|-----------------|---------5-5-5-5-|-----------------|---------5-5-5-5-|

D Bb C G D Bb C G
G|-----------------|-----------------|-----------------|-----------------|
D|-----------------|-----------------|-----------------|-----------------|
A|-5-5-5-5-1-1-1-1-|-3-3-3-3---------|-5-5-5-5-1-1-1-1-|-3-3-3-3---------|
D|-----------------|---------5-5-5-5-|-----------------|---------5-5-5-5-|

D
G|-----------------|-----------------|-----------------|-----------------|
D|-----------------|-----------------|-----------------|-----------------|
A|-5-5-5-5-5-5-5-5-|-5-5-5-5-5-5-5-5-|-5-5-5-5-5-5-5-5-|-5-5-5-5-5-5-5-5-|
D|-----------------|-----------------|-----------------|-----------------|

D Bb C G D Bb C G
G|-----------------|-----------------|-----------------|-----------------|
D|-----------------|-----------------|-----------------|-----------------|
A|-5-5-5-5-1-1-1-1-|-3-3-3-3---------|-5-------1-------|-3---------------|
D|-----------------|---------5-5-5-5-|-----------------|---------5-------|

Outro:

D
G|-----------------|-----------------|-----------------|-----------------|
D|-----------------|-----------------|-----------------|-----------------|
A|-----------------|-----------------|-----------------|-----------------|
D|-0-0-0-0-0-0-0-0-|-0-0-0-0-0-0-0-0-|-0-0-0-0-0-0-0-0-|-0-0-0-0-3---5---|

D
G|-----------------|-----------------|-----------------|
D|-----------------|-----------------|-----------------|
A|-----------------|-----------------|-5---------------|
D|-----------------|-----------------|-----------------|



*

«  Ноябрь 2017  »
ПнВтСрЧтПтСбВс
  12345
6789101112
13141516171819
20212223242526
27282930

*

ПАРТНЕРЫ:


Fan Site Geordie 2008 - 2017