GEORDIE - Stand Up (intro)


Stand Up (intro) Тип: табулатура


Stand Up Tab by Ac Dc, www.Ultimate-Guitar.Com

In my opinion this is the coolest Ac Dc song

Tuning: Standard

--------------------------|
--6--6--6--3--3--3--3--3--|
--0--0--0--0--0--0--0--0--|
--5--5--5--5--5--5--5--5--|
--------------------------|
--------------------------|
Stand Up!
--2-----3---------------------------------------|
--3-----3--------------1--------------1---------|
--2-----0----------0-2---2-0------0-2---2--0----|
--0-----0------0-3------------0-3---------------|
--x-----x---------------------------------------|
--2-----3---------------------------------------|

It's not a lot, but its a start.


*

«  Июнь 2018  »
ПнВтСрЧтПтСбВс
    123
45678910
11121314151617
18192021222324
252627282930

*

ПАРТНЕРЫ:


Fan Site Geordie 2008 - 2018