GEORDIE - Stand Up


Stand Up Тип: табулатура


s = slide

Play with the song for timing.

Intro/Verse 1
x4
E--------------------------------|------|
B-----6---6---6---6---3---3---3--|--3---|
G--------------------------------|--x---|
D--s5---5---5---5---5---5---5----|--5---|
A--------------------------------|------|
E--------------------------------|------|

Verse 2
D
E-------------------------------|
B--3--------------------3-------|
G--0h2-------2----------2---2---|
D--0---0--3--0--0-3-0---0---0-0-|
A---------------------3---------|
E-------------------------------|

Chorus
Stand up stand... take it
D G G F
E-2-------3----------------------------------3------1----|
B-3-------3----------------------------------3------1----|
G-2-------0--------------5-------------------0------2----|
D-0-------0------0-3-5s7-----7-6-5--0--3--0--0------3----|
A---------x----------------------------------x------3----|
E---------3----------------------------------3------1----|

Chorus end
D G x3 D
E-2-------3--|---------------------|--------|
B-3-------3--|---------------------|-----3--|
G-2-------0--|-----------5---------|-----2--|
D-0-------0--|-0-3-5-5s7---7-6-5---|-0-3-0--|
A---------x--|---------------------|--------|
E---------3--|---------------------|--------|


Verse riffs 1 and 2 are alternated a bit in the song, so listen for it.
good luck with the solo =) rhythm under solo shouldnt be too hard to
out with this.


*

«  Сентябрь 2017  »
ПнВтСрЧтПтСбВс
    123
45678910
11121314151617
18192021222324
252627282930

*

ПАРТНЕРЫ:


Fan Site Geordie 2008 - 2017