GEORDIE - Some Rockin (solo)


Some Rockin (solo) Тип: табулатура


-------------------------------------------------------------------------------
AC/DC-There's gonna be some rockin solo 1
-------------------------------------------------------------------------------
Tabbed by:Kristen

***This is guitar solo 1 of the song***

Tuning:Standard EADGBE
Q= quarter note
E= eighth note
b= bend the note up to note in the parenthesis
G= Grace Note
S= sixteenth note
H= half note
R= Quarter Rest
DQ=Dotted Quarter note
ER= eight rest

The timing is written under each line.


Spoken: It's another road show

R Q Q Q G Q Q G Q E G Ehold Q E E E Q
e|-------------|-----------------------10---------|------10----------10--------|
B|-------------|----------------------------------|----------------------------|
G|------10--12-|-10b(11)------12b(14)------12b(14)|-(14)-----12b(14)-----12b---|
D|-12----------|----------12----------------------|----------------------------|
A|-------------|----------------------------------|----------------------------|
E|-------------|----------------------------------|----------------------------|
2 3 4 1 2 3 4 & hold (1) 2 & 3 & 4



E E G Q E E E E E E E E E E G Q
e|------10---------10---------10-|---------10---------10----------------------|
B|-------------------------------|------------------------13(15)~ ~ -hold-----|
G|-(14)----12b(14)-----12b(14)---|-12b(14)----12b(14)-------------------------|
D|-------------------------------|--------------------------------------------|
A|-------------------------------|--------------------------------------------|
E|-------------------------------|--------------------------------------------|
(1) & 2 3 & 4 & 1 & 2 & 3 & 4



Q ~~ E E E E E E S S S E Q Q Q H
e|---------10--------------------------------|--------------------------------|
B|-(15)~ ~ ---10-13-----10-------------------|--------------------------------|
G|-------------------12----10--13p-12p-10----|-12--10--10---10~ ~ -\----------|
D|-----------------------------------------12|--------------------------------|
A|-------------------------------------------|--------------------------------|
E|-------------------------------------------|--------------------------------|
(1) 2 & a 3 & a 4 e & a 1 2 3 4




R Q Q DQ E ER E ER E G E E E E R G Q Q Q
e|----------------|-------------------------------|----------------------------|
B|----------------|-------------------------------|----------------------------|
G|---7--7--7------|-----7----------9b(11)----7----|----10b(12)---7---7 \-------|
D|-------------(0)|------------7----------7-----7-|----------------------------|
A|----------------|-------------------------------|----------------------------|
E|----------------|-------------------------------|----------------------------|
(1)2 3 4(e&)a (1) & (2) & 3 & 4 & (1) 2 3 4




**
Rake Q Q Q DQ E Q Q Q Q E E hold G EQ G Q Q Q
e|-----------------------|------------------|----------------------------------|
B|-----15-15--15\10------|---15-15-15-----15|(15)-18b(20)--17b(19)-15-15-------|
G|-/-*----------------14/|16-----------16---|----------------------------------|
D|-*---------------------|------------------|----------------------------------|
A|-----------------------|------------------|----------------------------------|
E|-----------------------|------------------|----------------------------------|
1 2 3 4(e&) a 1 2 3 4 & a (1) & 2 3 4



Q E E*H
e|---------------------------------------------------------------------------|
B|-15---18---19--------------------------------------------------------------|
G|---------------------------------------------------------------------------|
D|---------------------------------------------------------------------------|
A|---------------------------------------------------------------------------|
E|---------------------------------------------------------------------------|
1 2 &(3-4)



| / slide up
| \ slide down
| h hammer-on
| p pull-off
| ~ vibrato
| + harmonic
| x Mute note
================================================


*

«  Июнь 2018  »
ПнВтСрЧтПтСбВс
    123
45678910
11121314151617
18192021222324
252627282930

*

ПАРТНЕРЫ:


Fan Site Geordie 2008 - 2018