GEORDIE - Snowballed


Snowballed Тип: табулатура


-------------------------------------------------------------------------------
SNOWBALLED - AC/DC
-------------------------------------------------------------------------------
Tabbed by: Terry Long
Email: mrmaestro1 'at' gmail.com

Tuning: Standard
Time Signature: 4/4
Tempo: 150-155 BPM

Guitar 1
PM------------------ PM----------
(E) Q E E Q E E Q E E Q E
e|-------2------0------------------|-------2------0------------------|
B|-------3------2------------------|-------3------2------------------|
G|-------2------2------------------|-------2------2------------------|
D|-------0------2------------------|-------0------2------------------|
A|---------------------------------|---------------------------------|
E|------------------0---0------0---|---0--------------0---0------0---|

PM------------------
E Q E E Q E E Q E E E E E
e|-------2------0------------------|----------------------------------|
B|-------3------2------------------|----------------------------------|
G|-------2------2------------------|----------------------------------|
D|-------0------2------------------|------------------------------0---|
A|---------------------------------|-------0----------0---1---2-------|
E|---0--------------0---0------0---|---0----------3-------------------|

Guitar 1
E Q E E Q E E Q E E Q E
e|-------2------0------------------|-------2------0------------------|
B|-------3------2------------------|-------3------2------------------|
G|-------2------2------------------|-------2------2------------------|
D|-------0------2------------------|-------0------2------------------|
A|---------------------------------|---------------------------------|
E|---0--------------0---0------0---|---0--------------0---0------0---|
^
about every other
time play open 'A'

Guitar 1
E Q E E Q E E Q E E E E E
e|-------2------0------------------|----------------------------------|
B|-------3------2------------------|----------------------------------|
G|-------2------2------------------|----------------------------------|
D|-------0------2------------------|------------------------------0---|
A|---------------------------------|-------0----------0---1---2-------|
E|---0--------------0---0------0---|---0----------3-------------------|
| | |
| Guitar 2 | |
| (W) | E Q E E E E E |
e|---------------------------------|----------------------------------|
B|---------------------------------|-------2--------------------------|
G|---------------------------------|-------2--------------------------|
D|---------------------------------|-------2----------------------0---|
A|---------------------------------|-------0----------0---1---2-------|
E|---------------------------------|--------------3-------------------|

Guitar 1 play previous 4 measures 4.75 times while
Guitar 2 plays next 4 measures 4.75 times

Guitar 2
E Q E E Q E E Q E E Q E
e|-------2------0------------------|-------2------0------------------|
B|-------3------2------------------|-------3------2------------------|
G|-------2------2---1---1------1---|---1---2------2---1---1------1---|
D|-------0------2---2---2------2---|---2---0------2---2---2------2---|
A|---0--------------2---2------2---|---2--------------2---2------2---|
E|------------------0---0------0---|---0--------------0---0------0---|

E Q E E Q E E Q E E E E E
e|-------2------0------------------|----------------------------------|
B|-------3------2------------------|-------2--------------------------|
G|---1---2------2---1---1------1---|---1---2--------------------------|
D|---2---0------2---2---2------2---|---2---2----------------------0---|
A|---2--------------2---2------2---|---2---0----------0---1---2-------|
E|---0--------------0---0------0---|---0----------3-------------------|



Guitar 1
E Q E (Q) Q Q Q E Q E
e|-------0------0----------3------|---2-----------------------------|
B|-------0------0----------3------|---3-----------------------------|
G|-------------------------0------|---2------2----------2-----------|
D|-------2------2----------0------|---0------2----------2-----------|
A|-------2------2-----------------|----------0----------0-----------|
E|---0---0------0----------3------|-----------------3b---------3b---|
| | |
| Guitar 2 | |
| E Q E Q Q | Q Q E Q E |
e|-------------------------3------|---2-----------------------------|
B|-------------------------3------|---3-----------------------------|
G|---1---1------1---1------0------|---2------2----------2-----------|
D|---2---2------2---1------0------|---0------2----------2-----------|
A|---2---2------2---2-------------|----------0----------0-----------|
E|---0---0------0---0------3------|-----------------3b---------3b---|
do not barre the 'A' chord
- use pinky for the '3b'
sometimes this chord also
has a high open 'e' string and
possibly 'B' string 2nd fret
(Guitar 1 & 2)


Guitar 1 & Guitar 2 - play these 2 measures 3 times
E H (E) Q Q Q E Q E
e|-------2------------(2)--3------|---2-----------------------------|
B|-------3------------(3)--3------|---3-----------------------------|
G|---2---2------------(2)--0------|---2------2----------2-----------|
D|---2---0------------(0)--0------|---0------2----------2-----------|
A|---0----------------------------|----------0----------0-----------|
E|-------------------------3------|-----------------3b---------3b---|
^
this chord is sometimes
picked while moving fingers
to the 'D' chord, so it can
be 'D', 2nd fret on 'G', 'B'


Guitar 1 & Guitar 2
W + 1 extra beat
e|--------------------------------|
B|--------------------------------|
G|---2----------------------------|
D|---2----------------------------|
A|---0----------------------------|
E|--------------------------------|

Guitar 1 (let ring)
E E (Q.) E E E E E E E E E E E
e|---------------------------------|---0-------------------------------|
B|-----------------------------3---|-----------------------------------|
G|---1---2-------------2-/-4-------|-------4-\-2---0---2---0-----------|
D|---2---2-------------------------|---------------------------2---0---|
A|---2---0-------------------------|-----------------------------------|
E|---0-----------------------------|-----------------------------------|
| | |
| Guitar 2 | |
| E E (H.) | (W) |
e|---------------------------------|-----------------------------------|
B|-------2-------------------------|-----------------------------------|
G|---1---2-------------------------|-----------------------------------|
D|---2---2-------------------------|-----------------------------------|
A|---2---0-------------------------|-----------------------------------|
E|---0-----------------------------|-----------------------------------|

Guitar 1 (let ring)
E E (Q.) E E E E E E E H
e|---------------------------------|---0-------------------------------|
B|-----------------------------3---|-----------------------------------|
G|---1---2-------------2-/-4-------|-------4-\-2---0---2---------------|
D|---2---2-------------------------|-------------------2---------------|
A|---2---2-------------------------|-------------------0---------------|
E|---0-----------------------------|-----------------------------------|
| | |
| Guitar 2 | |
| E E (H.) | (H) H |
e|---------------------------------|-----------------------------------|
B|-------2-------------------------|------------------2----------------|
G|---1---2-------------------------|------------------2----------------|
D|---2---2-------------------------|------------------2----------------|
A|---2---0-------------------------|------------------0----------------|
E|---0-----------------------------|-----------------------------------|

Guitar 1 (let ring)
E E (Q.) E E E E E E E E E E E
e|---------------------------------|---0-------------------------------|
B|-----------------------------3---|-----------------------------------|
G|---1---2-------------2-/-4-------|-------4-\-2---0---2---0-----------|
D|---2---2-------------------------|---------------------------2---0---|
A|---2---0-------------------------|-----------------------------------|
E|---0-----------------------------|-----------------------------------|
| | |
| Guitar 2 | |
| E E (H.) | (W) |
e|---------------------------------|-----------------------------------|
B|-------2-------------------------|-----------------------------------|
G|---1---2-------------------------|-----------------------------------|
D|---2---2-------------------------|-----------------------------------|
A|---2---0-------------------------|-----------------------------------|
E|---0-----------------------------|-----------------------------------|


Guitar 1
E H.+E (W)
e|---------------------------------|-----------------------------------|
B|---------------------------------|-----------------------------------|
G|---1---2-------------------------|--(2)------------------------------|
D|---2---2-------------------------|--(2)------------------------------|
A|---2---0-------------------------|--(0)------------------------------|
E|---0-----------------------------|-----------------------------------|
| | |
| Guitar 2 | |
| E H.+E | (W) |
e|---------------------------------|-----------------------------------|
B|-------2-------------------------|--(2)------------------------------|
G|---1---2-------------------------|--(2)------------------------------|
D|---2---2-------------------------|--(2)------------------------------|
A|---2---0-------------------------|--(0)------------------------------|
E|---0-----------------------------|-----------------------------------|

Guitar 1
(E) Q E E Q E E Q E E Q E
e|-------2------0------------------|-------2------0------------------|
B|-------3------2------------------|-------3------2------------------|
G|-------2------2------------------|-------2------2------------------|
D|-------0------2------------------|-------0------2------------------|
A|---------------------------------|---------------------------------|
E|------------------0---0------0---|---0--------------0---0------0---|
| | |
| Guitar 2 | |
| (E) Q E E Q E | E Q E E Q E |
e|-------2------0------------------|-------2------0------------------|
B|-------3------2------------------|-------3------2------------------|
G|-------2------2---1---1------1---|---1---2------2---1---1------1---|
D|-------0------2---2---2------2---|---2---0------2---2---2------2---|
A|------------------2---2------2---|---2--------------2---2------2---|
E|------------------0---0------0---|---0--------------0---0------0---|

Guitar 1
E Q E E Q E E Q E E E E E
e|-------2------0------------------|----------------------------------|
B|-------3------2------------------|----------------------------------|
G|-------2------2------------------|----------------------------------|
D|-------0------2------------------|------------------------------0---|
A|---------------------------------|-------0----------0---1---2-------|
E|---0--------------0---0------0---|---0----------3-------------------|
| | |
| Guitar 2 | |
| E Q E E Q E | E Q E E E E E |
e|-------2------0------------------|----------------------------------|
B|-------3------2------------------|-------2--------------------------|
G|---1---2------2---1---1------1---|---1---2--------------------------|
D|---2---0------2---2---2------2---|---2---2----------------------0---|
A|---2--------------2---2------2---|---2---0----------0---1---2-------|
E|---0--------------0---0------0---|---0----------3-------------------|

Guitar 1
E Q E E Q E E Q E E Q E
e|-------2------0------------------|-------2------0------------------|
B|-------3------2------------------|-------3------2------------------|
G|-------2------2------------------|-------2------2------------------|
D|-------0------2------------------|-------0------2------------------|
A|---0-----------------------------|---------------------------------|
E|------------------0---0------0---|---0--------------0---0------0---|
| | |
| Guitar 2 | |
| E Q E E Q E | E Q E E Q E |
e|-------2------0------------------|-------2------0------------------|
B|-------3------2------------------|-------3------2------------------|
G|-------2------2---1---1------1---|---1---2------2---1---1------1---|
D|-------0------2---2---2------2---|---2---0------2---2---2------2---|
A|---0--------------2---2------2---|---2--------------2---2------2---|
E|------------------0---0------0---|---0--------------0---0------0---|

Guitar 1
E Q E E Q E
e|-------2------0------------------|
B|-------3------2------------------|
G|-------2------2------------------|
D|-------0------2------------------|
A|---------------------------------|
E|---0--------------0---0------0---|
| |
| Guitar 2 |
| E Q E E Q E |
e|-------2------0------------------|
B|-------3------2------------------|
G|---1---2------2---1---1------1---|
D|---2---0------2---2---2------2---|
A|---2--------------2---2------2---|
E|---0--------------0---0------0---|

Guitar 1
E Q E (Q) Q Q Q E Q E
e|-------0------0----------3------|---2-----------------------------|
B|-------0------0----------3------|---3-----------------------------|
G|-------------------------0------|---2------2----------2-----------|
D|-------2------2----------0------|---0------2----------2-----------|
A|-------2------2-----------------|----------0----------0-----------|
E|---0---0------0----------3------|-----------------3b---------3b---|
| | |
| Guitar 2 | |
| E Q E Q Q | Q Q E Q E |
e|-------------------------3------|---2-----------------------------|
B|-------------------------3------|---3-----------------------------|
G|---1---1------1---1------0------|---2------2----------2-----------|
D|---2---2------2---1------0------|---0------2----------2-----------|
A|---2---2------2---2-------------|----------0----------0-----------|
E|---0---0------0---0------3------|-----------------3b---------3b---|

Guitar 1 & Guitar 2 - play these 2 measures 3 times
E H (E) Q Q Q E Q E
e|-------2------------(2)--3------|---2-----------------------------|
B|-------3------------(3)--3------|---3-----------------------------|
G|---2---2------------(2)--0------|---2------2----------2-----------|
D|---2---0------------(0)--0------|---0------2----------2-----------|
A|---0----------------------------|----------0----------0-----------|
E|-------------------------3------|-----------------3b---------3b---|

Guitar 1 & Guitar 2
W + 1 extra beat
e|--------------------------------|
B|--------------------------------|
G|---2----------------------------|
D|---2----------------------------|
A|---0----------------------------|
E|--------------------------------|

Guitar 1 (let ring)
E E (Q.) E E E E E E E E E E E
e|---------------------------------|---0-------------------------------|
B|-----------------------------3---|-----------------------------------|
G|---1---2-------------2-/-4-------|-------4-\-2---0---2---0-----------|
D|---2---2-------------------------|---------------------------2---0---|
A|---2---0-------------------------|-----------------------------------|
E|---0-----------------------------|-----------------------------------|
| | |
| Guitar 2 | |
| E E (H.) | (W) |
e|---------------------------------|-----------------------------------|
B|-------2-------------------------|-----------------------------------|
G|---1---2-------------------------|-----------------------------------|
D|---2---2-------------------------|-----------------------------------|
A|---2---0-------------------------|-----------------------------------|
E|---0-----------------------------|-----------------------------------|

Guitar 1 (let ring)
E E (Q.) E E E E E E E H
e|---------------------------------|---0-------------------------------|
B|-----------------------------3---|-----------------------------------|
G|---1---2-------------2-/-4-------|-------4-\-2---0---2---------------|
D|---2---2-------------------------|-------------------2---------------|
A|---2---2-------------------------|-------------------0---------------|
E|---0-----------------------------|-----------------------------------|
| | |
| Guitar 2 | |
| E E (H.) | (H) H |
e|---------------------------------|-----------------------------------|
B|-------2-------------------------|-------------------2---------------|
G|---1---2-------------------------|-------------------2---------------|
D|---2---2-------------------------|-------------------2---------------|
A|---2---0-------------------------|-------------------0---------------|
E|---0-----------------------------|-----------------------------------|

Guitar 1 (let ring)
E E (Q.) E E E E E E E E E E E
e|---------------------------------|---0-------------------------------|
B|-----------------------------3---|-----------------------------------|
G|---1---2-------------2-/-4-------|-------4-\-2---0---2---0-----------|
D|---2---2-------------------------|---------------------------2---0---|
A|---2---0-------------------------|-----------------------------------|
E|---0-----------------------------|-----------------------------------|
| | |
| Guitar 2 | |
| E E (H.) | (W) |
e|---------------------------------|-----------------------------------|
B|-------2-------------------------|-----------------------------------|
G|---1---2-------------------------|-----------------------------------|
D|---2---2-------------------------|-----------------------------------|
A|---2---0-------------------------|-----------------------------------|
E|---0-----------------------------|-----------------------------------|


SOLO - Angus's solo seems to be dubbed over his earlier riff
so in this section you can still hear Angus and Malcom playing
the rhythm part while a 2nd Angus plays the solo
Just to make things clearer, I will use Guitar 3 for the solo guitar,
even though it is technically Guitar 1

Guitar 1
E H.+E (W)
e|---------------------------------|-----------------------------------|
B|---------------------------------|-----------------------------------|
G|---1---2-------------------------|--(2)------------------------------|
D|---2---2-------------------------|--(2)------------------------------|
A|---2---0-------------------------|--(0)------------------------------|
E|---0-----------------------------|-----------------------------------|
| | |
| Guitar 2 | |
| E H.+E | (W) |
e|---------------------------------|-----------------------------------|
B|-------2-------------------------|--(2)------------------------------|
G|---1---2-------------------------|--(2)------------------------------|
D|---2---2-------------------------|--(2)------------------------------|
A|---2---0-------------------------|--(0)------------------------------|
E|---0-----------------------------|-----------------------------------|
| | |
| Guitar 3 | |
| (W) | W |
e|---------------------------------|-----------------------------------|
B|---------------------------------|-----------------------------------|
G|---------------------------------|--7b9------------------------------|
D|---------------------------------|-----------------------------------|
A|---------------------------------|-----------------------------------|
E|---------------------------------|-----------------------------------|

Guitar 1
(E) Q E E E E E E Q E E Q E
e|-------2------0------------------|-------2------0------------------|
B|-------3------2------------------|-------3------2------------------|
G|-------2------2------------------|-------2------2------------------|
D|-------0------2------------------|-------0------2------------------|
A|---------------------------------|---------------------------------|
E|------------------0---0---0---0--|---0--------------0---0------0---|
| | |
| Guitar 3 | |
| (W) | (W) |
e|---------------------------------|---------------------------------|
B|---------------------------------|---------------------------------|
G|--(9)-tremolo picking------------|-(9)---pick slide----------------|
D|---------------------------------|---------------------------------|
A|---------------------------------|---------------------------------|
E|---------------------------------|---------------------------------|

Guitar 1
E Q E E Q E E Q E E E E E
e|-------2------0------------------|----------------------------------|
B|-------3------2------------------|----------------------------------|
G|-------2------2------------------|----------------------------------|
D|-------0------2------------------|------------------------------0---|
A|---------------------------------|-------0----------0---1---2-------|
E|---0--------------0---0------0---|---0----------3-------------------|
| | |
| Guitar 2 | |
| (W) | E Q E E E E E |
e|---------------------------------|----------------------------------|
B|---------------------------------|-------2--------------------------|
G|---------------------------------|-------2--------------------------|
D|---------------------------------|-------2----------------------0---|
A|---------------------------------|-------0----------0---1---2-------|
E|---------------------------------|--------------3-------------------|
| | |
| Guitar 3 | |
| (H) (E) (Q.) | (H) (H) |
e|---------------------------------|----------------------------------|
B|-----------------------------14b-|--(16)---------r(14)--------------|
G|--(9)-continued pick slide---14b-|--(16)---------r(14)--------------|
D|---------------------------------|----------------------------------|
A|---------------------------------|----------------------------------|
E|---------------------------------|----------------------------------|

Guitar 1 & Guitar 2 play the following 4 measures repeatedly
Guitar 1
E Q E E Q E E Q E E Q E
e|-------2------0------------------|-------2------0------------------|
B|-------3------2------------------|-------3------2------------------|
G|-------2------2------------------|-------2------2------------------|
D|-------0------2------------------|-------0------2------------------|
A|---0-----------------------------|---------------------------------|
E|------------------0---0------0---|---0--------------0---0------0---|
| | |
| Guitar 2 | |
| E Q E E Q E | E Q E E Q E |
e|-------2------0------------------|-------2------0------------------|
B|-------3------2------------------|-------3------2------------------|
G|-------2------2---1---1------1---|---1---2------2---1---1------1---|
D|-------0------2---2---2------2---|---2---0------2---2---2------2---|
A|---0--------------2---2------2---|---2--------------2---2------2---|
E|------------------0---0------0---|---0--------------0---0------0---|

Guitar 1
E Q E E Q E E Q E E E E E
e|-------2------0------------------|----------------------------------|
B|-------3------2------------------|----------------------------------|
G|-------2------2------------------|----------------------------------|
D|-------0------2------------------|------------------------------0---|
A|---------------------------------|-------0----------0---1---2-------|
E|---0--------------0---0------0---|---0----------3-------------------|
| | |
| Guitar 2 | |
| E Q E E Q E | E Q E E E E E |
e|-------2------0------------------|----------------------------------|
B|-------3------2------------------|-------2--------------------------|
G|---1---2------2---1---1------1---|---1---2--------------------------|
D|---2---0------2---2---2------2---|---2---2----------------------0---|
A|---2--------------2---2------2---|---2---0----------0---1---2-------|
E|---0--------------0---0------0---|---0----------3-------------------|

SOLO (cont.)
Guitar 3
Q E E+H Q E Q. S S S S
e|---------------------------------|------------------------12-15-12------|
B|---15b17--15b17-15b17~~~~~~~~~~~~|---15b17--15b17-15b17~~~---------15---|
G|---------------------------------|--------------------------------------|
D|---------------------------------|--------------------------------------|
A|---------------------------------|--------------------------------------|
E|---------------------------------|--------------------------------------|

S S S S S S S S S S S S E E
e|---12-------------------------------------------|
B|------12-15-12-15-12-15-12----------------------|
G|---------------------------15-14-12----14-12-b--| (bend continues next line)
D|------------------------------------14----------|
A|------------------------------------------------|
E|------------------------------------------------|

S S S S S S E Q (E) E E S S S S Q. S E S
e|----------------------------------------|----------------------------------|
B|-----------------------------------12-b-|-(14)-------------------12----12--|
G|--(14)r12--------------------------12-b-|-(14)-------------15b16---15b16---|
D|----------14-12-14-12----12-\-----------|------14-12-14-12-----------------|
A|----------------------13----------------|----------------------------------|
E|----------------------------------------|----------------------------------|

E S E S E E. S S S S S
e|---------------------------------12---------------|
B|---------12-------12----------------15-12----12---|
G|---15b16----15b16----15b16-15b16----------15------|
D|--------------------------------------------------|
A|--------------------------------------------------|
E|--------------------------------------------------|

3 3
[E E E][E E E] S S S S S S E (E.)S S S S S Q. E
e|--------------------------------------------|------------------------------|
B|--------------------------------------------|---------------------------12-|
G|---15-14-12-14-12-14------------------------|---------------------------13-|
D|---------------------14-12-14-12-14----12-b-|-(14)-------------------------|
A|------------------------------------14------|--------------------12b14\----|
E|--------------------------------------------|-----15b17r15b17r15-----------|

Q Q Q Q Q Q Q E E
e|-------------------------------|------------------------------------|
B|--(12)----15-----12-----15-----|---12-----15-----12-----15--15b17---|
G|--(13)----16-----13-----16-----|---13-----16-----13-----16----------|
D| Tremolo picking | Tremolo picking ----------|
A|-------------------------------|------------------------------------|
E|-------------------------------|------------------------------------|

3
(Q) S S E S E. S E. (E) Q E Q. [S S S]
e|----------------------------------------|-------------------------15p12p10-|
B|--(17)---12-15-b-17--12-15b17-12-15b17--|--(17)-pb17--pb17-pb17~~~---------|
G|----------------------------------------|----------------------------------|
D|----------------------------------------|----------------------------------|
A|----------------------------------------|----------------------------------|
E|----------------------------------------|----------------------------------|

3 3 3
S S [S S S] S S [S S S] S S [S S S] S S S S
e|---15-12-15p12p10-15-12-15p12p10-15-12-15p12p10-12-10---------|
B|------------------------------------------------------12-15---|
G|--------------------------------------------------------------|
D|--------------------------------------------------------------|
A|--------------------------------------------------------------|
E|--------------------------------------------------------------|

S S S S S S S S S S S S S S E
e|------------------------------------------------|
B|-12-11-12-11------------------------------------|
G|-------------14-12-14-12-14----------------15-b-| (bend continues next line)
D|-------------------------12-14-12-14-12---------|
A|----------------------------------------14------|
E|------------------------------------------------|

Q S S S S S S S S S S S S (Q.) H E
e|---------12-----------------------------------|----------------------------|
B|------------15-12----12-----------------------|----------------------------|
G|-(16)-------------15----15-14-12-14-12-14-12~~|-(12)~~~~-15b16-\------12-b-|
D|----------------------------------------------|----------------------------|
A|----------------------------------------------|----------------------------|
E|----------------------------------------------|----------------------------|

Guitar 1
E E (H.) (W) E E (H.)
e|--------------------------|-----------------------|------------------------|
B|--------------------------|-----------------------|------------------------|
G|---1---2------------------|-----------------------|---1---2----------------|
D|---2---2------------------|-----------------------|---2---2----------------|
A|---2---0------------------|-----------------------|---2---0----------------|
E|---0----------------------|-----------------------|---0--------------------|
| | | |
| Guitar 2 | | |
| E E (H.) | (W) | E E (H.) |
e|--------------------------|-----------------------|------------------------|
B|-------2------------------|-----------------------|-------2----------------|
G|---1---2------------------|-----------------------|---1---2----------------|
D|---2---2------------------|-----------------------|---2---2----------------|
A|---2---0------------------|-----------------------|---2---0----------------|
E|---0----------------------|-----------------------|---0--------------------|
| | | |
| Guitar 3 | | |
| (E) H+E Q | (E) E E H (E) | (E) Q. [Q Q Q] |
e|--------------------------|-----------------------|------------------------|
B|--------------------------|------15------12-\-----|------------------------|
G|--(13)-------------14--b--|-(16)-----14b----------|------15b17-14b-12--14--|
D|-------14~~~~~~~~~--------|-----------------------|------------------------|
A|--------------------------|-----------------------|------------------------|
E|--------------------------|-----------------------|------------------------|

Guitar 1
(H) H E E (H.)
e|-----------------------------|--------------------------------|
B|-----------------------------|--------------------------------|
G|---------------2-------------|---1---2------------------------|
D|---------------2-------------|---2---2------------------------|
A|---------------0-------------|---2---0------------------------|
E|-----------------------------|---0----------------------------|
| | |
| Guitar 2 | |
| (H) H | E E (H.) |
e|-----------------------------|--------------------------------|
B|---------------2-------------|-------2------------------------|
G|---------------2-------------|---1---2------------------------|
D|---------------2-------------|---2---2------------------------|
A|---------------0-------------|---2---0------------------------|
E|-----------------------------|---0----------------------------|
| | |
| Guitar 3 | |
| Q E E H | (E) Q. S S Q. |
e|-----------------------------|--------------------------------|
B|-----------------------------|-----------------------12b13----|
G|-----------------------------|-------12b13-----12----12b13----|
D|-14\12-----------------------|--------------------14----------|
A|-----------14----------------|--------------------------------|
E|----------------15-15b16r15~~|--------------------------------|

Guitar 1
(W) E E+H (W)
e|-----------------------------|-----------------------------|---------------|
B|-----------------------------|-----------------------------|---------------|
G|-----------------------------|---1---2---------------------|--(2)----------|
D|-----------------------------|---2---2---------------------|--(2)----------|
A|-----------------------------|---2---0---------------------|--(0)----------|
E|-----------------------------|---0-------------------------|---------------|
| | | |
| Guitar 2 | | |
| (W) | E E+H | (W) |
e|-----------------------------|-----------------------------|---------------|
B|-----------------------------|------2----------------------|--(2)----------|
G|-----------------------------|--1---2----------------------|--(2)----------|
D|-----------------------------|--2---2----------------------|--(2)----------|
A|-----------------------------|--2---0----------------------|--(0)----------|
E|-----------------------------|--0--------------------------|---------------|
| | | |
| Guitar 3 | | |
| | 3 | |
| E Q E H | H [Q Q Q] | H (H) |
e|-----------------------------|-----------------------------|---------------|
B|-------12b13-----------------|---15-b-17--pb17--pb17--pb17-|-pb17-----\----|
G|-------12b13-----------------|-----------------------------|---------------|
D|---14---------14--14~~~~~~~--|-----------------------------|---------------|
A|-----------------------------|-----------------------------|---------------|
E|-----------------------------|-----------------------------|---------------|


Guitar 1
Q Q W (H) Q Q
e|---3----------|---0------------|--(0)----------3----------------|
B|---3------3---|---2------------|--(2)----------3------3---------|
G|---0------2---|---2------------|--(2)----------0------2---------|
D|---0------0---|---2------------|--(2)----------0------0---------|
A|--------------|---0------------|--(0)---------------------------|
E|---3----------|----------------|---------------3----------------|
| | |
| Guitar 2 | |
| (H) (W) | (H) Q Q |
e|--------------|----------------|---------------3------0---------|
B|--------------|----------------|---------------3------3---------|
G|--------------|----------------|---------------0------2---------|
D|--------------|----------------|---------------0------0---------|
A|--------------|----------------|--------------------------------|
E|--------------|----------------|---------------3----------------|

Guitar 1
Q E Q E E E (H+E) Q Q |
e|---0----------0----------0---2---|--(2)----------3------0------|
B|---2----------2----------2---3---|--(3)----------3------3------|
G|---2----------2----------2---2---|--(2)----------0------2------|
D|---2----------2----------2---0---|--(0)----------0------0------|
A|---0----------0----------0-------|-----------------------------|
E|----------3b---------3b----------|---------------3-------------|
| | |
| Guitar 2 | |
| W | (H) Q Q |
e|---0-----------------------------|--(0)----------3------0------|
B|---2-----------------------------|--(2)----------3------3------|
G|---2-----------------------------|--(2)----------0------2------|
D|---2-----------------------------|--(2)----------0------0------|
A|---0-----------------------------|--(0)------------------------|
E|---------------------------------|---------------3-------------|

Guitar 1
Q E Q E E E (H+E) Q Q
e||---0----------0----------0---2---|--(2)----------3------0------||
B||.--2----------2----------2---3---|--(3)----------3------3-----.||
G||---2----------2----------2---2---|--(2)----------0------2------|| x4
D||---2----------2----------2---0---|--(0)----------0------0------||
A||.--0----------0----------0-------|----------------------------.||
E||----------3b---------3b----------|---------------3-------------||
|| | ||
|| Guitar 2 | ||
|| Q E Q E E E | (H+E) Q Q ||
e||---0----------0----------0---2---|--(2)----------3------0------||
B||.--2----------2----------2---3---|--(3)----------3------3-----.||
G||---2----------2----------2---2---|--(2)----------0------2------|| x4
D||---2----------2----------2---0---|--(0)----------0------0------||
A||.--0----------0----------0-------|----------------------------.||
E||----------3b---------3b----------|---------------3-------------||

SOLO 2 - Guitars 1 & 2 repeat previous 2 measures throughout

Guitar 3
(H) H H. E E
e|-----------------------------|--------------------------------|
B|--------------10--(10)-------|---10--(10)---------13b15-13b15-|
G|--------------12-b-14--------|---12-b-14----------------------|
D|-----------------------------|--------------------------------|
A|-----------------------------|--------------------------------|
E|-----------------------------|--------------------------------|

(H) H Q Q Q E E
e|------------------------------|---------------------------------|
B|--(15)~~~~~~~~--15--b--17-----|--15b17--13----------------13b---|
G|------------------------------|----------------14-----14--------|
D|------------------------------|---------------------------------|
A|------------------------------|---------------------------------|
E|------------------------------|---------------------------------|

(E) E E E H Q. Q. E
e|--------12------------------------|---------------------------|
B|--(b14)-----14r13-----15--b--17---|--15-b-17------------13b---|
G|------------------14--------------|-----------14~~~~~---------|
D|----------------------------------|---------------------------|
A|----------------------------------|---------------------------|
E|----------------------------------|---------------------------|

(E) E E H E Q E H E
e|--------12-------------------------|----------12-----------------|
B|--(b14)-----14r13--------------13b-|-(b14)------------------15b--|
G|------------------14~~~~~~~~~------|--------------14-------------|
D|-----------------------------------|-----------------------------|
A|-----------------------------------|-----------------------------|
E|-----------------------------------|-----------------------------|

Tremolo picking-------------
E E E E H Q. Q. E
e|-------15--12--15---12---------|--12-------15--------------|
B|-(b17)-------------------------|--------------------15b17--|
G|-------------------------------|---------------------------|
D|-------------------------------|---------------------------|
A|-------------------------------|---------------------------|
E|-------------------------------|---------------------------|

3
[(E) (E) E] E E H Q E Q. E E
e|-----------------------------------|---------------------------------|
B|-(b17)-(r15)-----15--13b-----------|---13b14---------------13--15b---|
G|-------------14----------14--------|----------14--14~~~~~~-----------|
D|-----------------------------------|---------------------------------|
A|-----------------------------------|---------------------------------|
E|-----------------------------------|---------------------------------|

E [S S S] E E+H
e|------------------------------------|
B|-(b16)--15p13------15---15--\-------|
G|--------------14--------------------|
D|------------------------------------|
A|------------------------------------|
E|------------------------------------|

Guitar 1 & 2
E E E E E E E E E E E E Q Q
e||---0-----------0-----------0-------|---0---------------3------2------||
B||.--2-----------2-----------2-------|---2---------------3------3-----.||
G||---2---2---2---2---2---2---2---2---|---2---2---2---2---0------2------||
D||---2---2---2---2---2---2---2---2---|---2---2---2---2---0------0------|| x3
A||.--0---0---0---0---0---0---0---0---|---0---0---0---0----------------.||
E||-----------------------------------|-------------------3-------------||

Guitar 1 & 2
E E E E Q Q H E
e|------------------------------------------0---|
B|---2-------2-------2----------------------2---|
G|---2-------2-------2----------------------2---|
D|---2-------2-------2----------------------2---|
A|---0---7\--0---7\--0----------------------0---|
E|--------------------------3--b--5-------------|

| b bend
| pb pre-bend (use previous fret note and bend to indicated fret pitch)
| / slide up
| \ slide down
| h hammer-on
| p pull-off
| ~ vibrato
| x mute note
| PM palm mute
| (#) Tied note (don't re-pick)

Rhythms:
| S = 16th note
| E = 8th note
| Q = Quarter note
| H = Half note
| W = Whole note
| ( ) = Rest
| 3 = Triplet
==================================


*

«  Сентябрь 2017  »
ПнВтСрЧтПтСбВс
    123
45678910
11121314151617
18192021222324
252627282930

*

ПАРТНЕРЫ:


Fan Site Geordie 2008 - 2017