GEORDIE - Skies On Fire


Skies On Fire Тип: табулатура


Intro:

G5 D5
E|-----------------|-----------------|----3----33--3---|-----------------|
B|-----------------|-----------------|-3333--3333--3---|-3---------------|
G|-----------------|-----------------|-2220--2200--0---|-2---------------|
D|-----------------|-----------------|-0000--0000--0---|-0---------------|
A|-----------------|-----------------|----x----xx--x---|-----------------|
E|-----------------|-----------------|----3----33--3---|-----------------|
|
| G5 D
E|-----------------|-----------------|----3----33--3---|-----------------|
B|-----------------|-----------------|-3333--3333--3---|-3---------------|
G|-----------------|-----------------|-2220--2200--0---|-2---------------|
D|-----------------|-----------------|-0000--0000--0---|-0---------------|
A|-----------------|-----------------|----x----xx--x---|-0---------------|
E|-----------------|-----------------|----3----33--3---|-----------------|

Repeat last two bars 4 times.

Verse 1:

A5 G5 F5 FD C5 G5 D5
E|-----------------| |-----------------|
B|-----------------| |---------3-------|
G|-----------------| |------0--2-------|
D|-------------37--| |---5--0--0-------|
A|---7--5--3---35--| |---3--x----------|
E|---5--3--1-------| |------3----------|
| x3 |
| A5 G5 F5 | C5 G5 D5
E|-----------------| |-----------------|
B|-----------------| |---------3-------|
G|-----------------| |---5-----2-------|
D|---7--5--3---33--| |---5--5--0-------|
A|---7--5--3---3---| |---3--5----------|
E|-----------------| |------3----------|


A5 G5 F5 FD C5 G5 D5
E|-----------------| |-----------------|
B|-----------------| |---------3-------|
G|-----------------| |------0--2-------|
D|-------------37--| |---5--0--0-------|
A|---7--5--3---35--| |---3--x----------|
E|---5--3--1-------| |------3----------|
| x3 |
| A5 G5 F5 | C5 G5 D5
E|-----------------| |-----------------|
B|-----------------| |---------3-------|
G|-----------------| |---5-----2-------|
D|---7--5--3---33--| |---5--5--0-------|
A|---7--5--3---3---| |---3--5----------|
E|-----------------| |------3----------|

C5 G5 D5
E|-----------------|
B|---------3-------|
G|------0--2-------|
D|---5--0--0-------|
A|---3--x----------|
E|------3----------|
| x3
|
E|-----------------|
B|---------3-------|
G|---5-----2-------|
D|---5--5--0-------|
A|---3--5----------|
E|------3----------|

Chorus 1:

G5 D5 G5 D5
E|----3----33--3---|-----------------|----3----33--3---|-----------------|
B|-3333--3333--3---|-3---------------|-3333--3333--3---|-3---------------|
G|-2220--2200--0---|-2---------------|-2220--2200--0---|-2---------------|
D|-0000--0000--0---|-0---------------|-0000--0000--0---|-0---------------|
A|----x----xx--x---|-----------------|----x----xx--x---|-----------------|
E|----3----33--3---|-----------------|----3----33--3---|-----------------|
|
| G5 D G5 D
E|----3----33--3---|-----------------|----3----33--3---|-----------------|
B|-3333--3333--3---|-3---------------|-3333--3333--3---|-3---------------|
G|-2220--2200--0---|-2---------------|-2220--2200--0---|-2---------------|
D|-0000--0000--0---|-0---------------|-0000--0000--0---|-0---------------|
A|----x----xx--x---|-0---------------|----x----xx--x---|-0---------------|
E|----3----33--3---|-----------------|----3----33--3---|-----------------|


G5 D5 G5 D5
E|----3----33--3---|-----------------|----3----33--3---|-----------------|
B|-3333--3333--3---|-3---------------|-3333--3333--3---|-3---------------|
G|-2220--2200--0---|-2---------------|-2220--2200--0---|-2---------------|
D|-0000--0000--0---|-0---------------|-0000--0000--0---|-0---------------|
A|----x----xx--x---|-----------------|----x----xx--x---|-----------------|
E|----3----33--3---|-----------------|----3----33--3---|-----------------|
|
| G5 D G5 D
E|----3----33--3---|-----------------|----3----33--3---|-----------------|
B|-3333--3333--3---|-3---------------|-3333--3333--3---|-3---------------|
G|-2220--2200--0---|-2---------------|-2220--2200--0---|-2---------------|
D|-0000--0000--0---|-0---------------|-0000--0000--0---|-0---------------|
A|----x----xx--x---|-0---------------|----x----xx--x---|-0---------------|
E|----3----33--3---|-----------------|----3----33--3---|-----------------|

Verse 2:

A5 G5 F5 FD C5 G5 D5
E|-----------------| |-----------------|
B|-----------------| |---------3-------|
G|-----------------| |------0--2-------|
D|-------------37--| |---5--0--0-------|
A|---7--5--3---35--| |---3--x----------|
E|---5--3--1-------| |------3----------|
| x7 | x4
| A5 G5 F5 | C5 G5 D5
E|-----------------| |-----------------|
B|-----------------| |---------3-------|
G|-----------------| |---5-----2-------|
D|---7--5--3---33--| |---5--5--0-------|
A|---7--5--3---3---| |---3--5----------|
E|-----------------| |------3----------|

Chorus 2:

G5 D5 G5 D5
E|----3----33--3---|-----------------|----3----33--3---|-----------------|
B|-3333--3333--3---|-3---------------|-3333--3333--3---|-3---------------|
G|-2220--2200--0---|-2---------------|-2220--2200--0---|-2---------------|
D|-0000--0000--0---|-0---------------|-0000--0000--0---|-0---------------|
A|----x----xx--x---|-----------------|----x----xx--x---|-----------------|
E|----3----33--3---|-----------------|----3----33--3---|-----------------|
|
| G5 D G5 D
E|----3----33--3---|-----------------|----3----33--3---|-----------------|
B|-3333--3333--3---|-3---------------|-3333--3333--3---|-3---------------|
G|-2220--2200--0---|-2---------------|-2220--2200--0---|-2---------------|
D|-0000--0000--0---|-0---------------|-0000--0000--0---|-0---------------|
A|----x----xx--x---|-0---------------|----x----xx--x---|-0---------------|
E|----3----33--3---|-----------------|----3----33--3---|-----------------|


G5 D5 G5 D5
E|----3----33--3---|-----------------|----3----33--3---|-----------------|
B|-3333--3333--3---|-3---------------|-3333--3333--3---|-3---------------|
G|-2220--2200--0---|-2---------------|-2220--2200--0---|-2---------------|
D|-0000--0000--0---|-0---------------|-0000--0000--0---|-0---------------|
A|----x----xx--x---|-----------------|----x----xx--x---|-----------------|
E|----3----33--3---|-----------------|----3----33--3---|-----------------|
|
| G5 D G5 D
E|----3----33--3---|-----------------|----3----33--3---|-----------------|
B|-3333--3333--3---|-3---------------|-3333--3333--3---|-3---------------|
G|-2220--2200--0---|-2---------------|-2220--2200--0---|-2---------------|
D|-0000--0000--0---|-0---------------|-0000--0000--0---|-0---------------|
A|----x----xx--x---|-0---------------|----x----xx--x---|-0---------------|
E|----3----33--3---|-----------------|----3----33--3---|-----------------|

Hold D chord for one more bar

Guitar Solo 1:

Angus (Solo):

P.H.
E|---------------------------|------------------------|
B|-13b15~~~~~~~13b15~~~~~~\--|------------------------|
G|------------------------\--|-10b--------------------|
D|------------------------\--|-------12-10-12~~~~10b--|
A|------------------------\--|------------------------|
E|---------------------------|------------------------|

E|-------------10----------------10-13---|-------------------------------|
B|----------10----13-10-------10---------|----13-15-13b15-15-13b15~~~~~\-|
G|-12b14----------------12b14------------|-/14---------------------------|
D|---------------------------------------|-------------------------------|
A|---------------------------------------|-------------------------------|
E|---------------------------------------|-------------------------------|

P.H.----------------|
E|---------------------------------------------------------|
B|------------10-------------------------------------------|
G|-12b14r12~~~---12pb14-----10-12----10b~~~~---------------|
D|--------------------------------12--------12(10)\/10////-|
A|---------------------------------------------------------|
E|---------------------------------------------------------|

E|-------------------|-----10-13-13b-10~~~~-10-13b~10~-|
B|-------------------|-/13-----------------------------|
G|-5-5-5~~~-5-7~~~~\-|---------------------------------|
D|--------7----------|---------------------------------|
A|-------------------|---------------------------------|
E|-------------------|---------------------------------|

E|---------------------------------------|
B|-20b22~~~~~20b22~~~~~18b---------------|
G|---------------------------19~~~~~~~\\-|
D|---------------------------------------|
A|---------------------------------------|
E|---------------------------------------|

E|----17---17---17-------|
B|----18b--18b--18b------|
G|-----------------------|
D|-----------------------|
A|-----------------------|
E|-----------------------|

E|-20b22~~~~~20b22~~~~~20b22~~~~~~22----20--------------------------|
B|-----------------------------------22----20-22-18b~~~-------------|
G|-------------------------------------------------------19-19~~~~\-|
D|------------------------------------------------------------------|
A|------------------------------------------------------------------|
E|------------------------------------------------------------------|

E|----------------|
B|-13b15~~~~~~~~~~|
G|----------------|
D|----------------|
A|----------------|
E|----------------|


Angus and Malcolm (Rhythm):

A5 G5 F5 FD C5 G5 D5
E|-----------------| |-----------------|
B|-----------------| |---------3-------|
G|-----------------| |------0--2-------|
D|-------------37--| |---5--0--0-------|
A|---7--5--3---35--| |---3--x----------|
E|---5--3--1-------| |------3----------|
| x7 | x4
| A5 G5 F5 | C5 G5 D5
E|-----------------| |-----------------|
B|-----------------| |---------3-------|
G|-----------------| |---5-----2-------|
D|---7--5--3---33--| |---5--5--0-------|
A|---7--5--3---3---| |---3--5----------|
E|-----------------| |------3----------|

Then play the last two bars of the intro once, before blasting back
into the chorus.

Chorus/Guitar Solo 2:

Angus (Solo):

2:50

E|-------14-15-15b17-------14-15-14-----------------12-----|
B|-15~~~~---------------------------15-15~~~~~12h15---15~~~|
G|---------------------------------------------------------|
D|---------------------------------------------------------|
A|---------------------------------------------------------|
E|---------------------------------------------------------|

P.H.
E|-13~~~~~-----------------------|
B|---------12b13r10-----15~~~~~\-|
G|-------------------------------|
D|-------------------------------|
A|-------------------------------|
E|-------------------------------|

E|-------15-16-17-16-15-13-15-13~~~~~----------|
B|-15-19-----------------------------15-13-15--|
G|---------------------------------------------|
D|---------------------------------------------|
A|---------------------------------------------|
E|---------------------------------------------|

E|-13b-13b~~~~13b-13b-13b------|
B|-----------------------------|
G|-----------------------------|
D|-----------------------------|
A|-----------------------------|
E|-----------------------------|

E|-------14-15~~~~-------15-15~~~~-|
B|-15-17-----------15-17-----------|
G|---------------------------------|
D|---------------------------------| x3
A|---------------------------------|
E|---------------------------------|

E|-13b15~~~~~-13----15-13----------13-----10~~~~~~~\-|
B|---------------15-------15-13-15----13-------------|
G|---------------------------------------------------|
D|---------------------------------------------------|
A|---------------------------------------------------|
E|---------------------------------------------------|

Angus and Malcolm (Rhythm):

Repeat Chorus underneath solo. End on D5

E|-----|
B|-3---|
G|-2---|
D|-0---|
A|-----|
E|-----|



*

«  Июнь 2018  »
ПнВтСрЧтПтСбВс
    123
45678910
11121314151617
18192021222324
252627282930

*

ПАРТНЕРЫ:


Fan Site Geordie 2008 - 2018