GEORDIE - Send For The Man


Send For The Man Тип: табулатура


Send For The Man Tab by Ac Dc, www.Ultimate-Guitar.Com

|------------------------||
|--3---------------------||
|--2---------------------||
|--0---3/5----3/5-3/5-3--||
|------3/5----3/5-3/5-3--||
|------1/3----1/3-1/3-1--||

|-------------------------------||
|----3-------3------3------3----||
|------2-------2------2------2--||
|--0----------------------------||
|---------3-------1-----3-------||
|-------------------------------||



*

«  Январь 2018  »
ПнВтСрЧтПтСбВс
1234567
891011121314
15161718192021
22232425262728
293031

*

ПАРТНЕРЫ:


Fan Site Geordie 2008 - 2018