GEORDIE - Sattelite Blues


Sattelite Blues Тип: табулатура


Name: Dwaine

Tabs: Satellite Blues


Intro + verse:
E|------------------------|-------------------|----3--3-----3---------|
B|------------------------|----------------3--|----3--3--3--3--3------|
G|--0--2--0----0--2--2----|----------------2--|----0--0--2--0--2------|
D|--0--2--0----0--2--2----|----------------0--|----0--0--0--0--0------|
A|--0--0--0----0--0--0----|-------------------|-----------------------|
E|------------------------|-------------------|-----------------------|


before chorus: new satellite
|-------------------|----3--3-----3----------|------------------|
|----------------3--|----3--3--3--3--3----3--|------------------|
|----------------2--|----0--0--2--0--2----2--|------------------|
|----------------0--|----0--0--0--0--0----0--|------------------|
|-------------------|------------------------|------------------|
|-------------------|------------------------|------------------|

Chorus:
blues new satellite blues
|------------------------|-----------------------|
|------------------------|--------------------3--|
|--0--2--0----0--2--2----|------2--0----2--2--2--|
|--0--2--0----0--2--2----|------2--0----2--2--0--|
|--0--0--0----0--0--0----|------0-------0--0-----|
|------------------------|-----------------------|

new satellite blues
|----3--3-----3----------|----3--3-----3--------|------------------------|
|----3--3--3--3--3----3--|----3--3--3--3--------|------------------------|
|----0--0--2--0--2----2--|----0--0--2--0--------|--0--2--0----0--2--2----|
|----0--0--0--0--0----0--|----0--0--0--0--------|--0--2--0----0--2--2----|
|------------------------|----------------------|--0--0--0----0--0--0----|
|------------------------|----------------------|------------------------|

new satellite blues to
verse:
|-----------------------|----3--3-----3-------3--|----------3-----3------|
|--------------------3--|----3--3--3--3--3----3--|----1--1--3--1--3------|
|------2--0----2--2--2--|----0--0--2--0--2----0--|----0--0--0--0--0------|
|------2--0----2--2--0--|----0--0--0--0--0----0--|----2--2--0--2--0------|
|------0-------0--0-----|------------------------|----3--3-----3---------|
|-----------------------|------------------------|-----------------------|


end of 2nd chorus:
to solo:
|----------3-----3----3--|----------3-----3----3--|----------3-----3-------|
|----1--1--3--1--3----3--|----1--1--3--1--3----3--|----1--1--3--1--3----3--|
|----0--0--0--0--0----0--|----0--0--0--0--0----0--|----0--0--0--0--0----2--|
|----2--2--0--2--0----0--|----2--2--0--2--0----0--|----2--2--0--2--0----0--|
|----3--3-----3----------|----3--3-----3----------|----3--3-----3----------|
|------------------------|------------------------|------------------------|

solo chords same as 2nd chorus

chorus part till end:
|------------------------|-----------------------|
|------------------------|--------------------3--|
|--0--2--0----0--2--2----|------2--0----2--2--2--|
|--0--2--0----0--2--2----|------2--0----2--2--0--|
|--0--0--0----0--0--0----|------0-------0--0-----|
|------------------------|-----------------------|

|----3--3-----3-------3--|----------3-----3------|
|----3--3--3--3--3----3--|----1--1--3--1--3------|
|----0--0--2--0--2----0--|----0--0--0--0--0------|
|----0--0--0--0--0----0--|----2--2--0--2--0------|
|------------------------|----3--3-----3---------|
|------------------------|-----------------------|


end chords:
|--3----3---------3----|-------------------|-------------------|
|--3----3----3----3----|--3----------------|-------------------|
|--0----0----2----0----|--2----------------|--2----------------|
|--0----0----0----0----|--0----------------|--2----------------|
|----------------------|-------------------|--0----------------|
|----------------------|-------------------|-------------------|


Tablature by Clemens Fehlow.
AC/DC Tablature Page


*

«  Январь 2018  »
ПнВтСрЧтПтСбВс
1234567
891011121314
15161718192021
22232425262728
293031

*

ПАРТНЕРЫ:


Fan Site Geordie 2008 - 2018