GEORDIE - Rocking All The Way


Rocking All The Way Тип: табулатура


Rocking All The Way by AC/DC
from Black Ice

e----------------------|
B----------------------|
G----------------------|
D-3h5-5--3-5/8-5---5---|
A----------------8-----|
E----------------------|

e--------------------------------------------------------|
B--------------------------------------------------------|
G--------------------------------------------------------|
D-5-5-------------3-5/8-5---5-------------5-5------------|
A-5-5--3p1---3p1----------8----3p1---3p1--5-5-3p1---3p1--|
E-3-3------3-----------------------3------3-3-----3------|

0.16 x2
e----------------------|
B----------------------|
G---3-0---0------------|
D-3-----3--------------|
A-----------3p1---3p1--|
E---------------3------|

VERSE x4
e------------|
B------------|
G-5-5-5-3----|
D-5-5-5-3-3--|
A-3-3-3-1-3--|
E---------1--|

PRE CHORUS 0.40
e------------------|
B------------------|
G-7-7-7-7-7-7-7-7--|
D-7-7-7-7-7-7-7-7--|
A-5-5-5-5-5-5-5-5--|
E------------------|

CHORUS 0.47 x4
e-----------------------|
B-----------------------|
G---3-------------------|
D-3-3-5-3-5-------------|
A-3-1-5-3-5--3p1---3p1--|
E-1---3-1-3------3------|

Any corrections please comment
Thanks
 

кодовый замок


*

«  Декабрь 2017  »
ПнВтСрЧтПтСбВс
    123
45678910
11121314151617
18192021222324
25262728293031

*

ПАРТНЕРЫ:


Fan Site Geordie 2008 - 2017