GEORDIE - Razors Edge (album)


Razors Edge (album) Тип: табулатура


Ac/Dc
The Razor's Edge(1990) Album Tab
tab by Voytazz

Songs:

Thunderstruck
Fire Your Guns
Moneytalks
The Razors Edge
Mistress For Christmas
Rock Your Heart Out
Are You Ready
Got You By The Balls
Shot Of Love
Let's Make It
Goodbye And Good Riddance To Bad Luck
If You Dare



Thunderstruck by Ac/Dc
Rhythm figure 1 (Angus)
(B)
-------|--------------------------------|--------------------------------|
-----0h|4p0h7p0h4p0h7p0h4p0h7p0h4p0h7p0h|4p0h7p0h4p0h7p0h4p0h7p0h4p0h7p0h|
-------|--------------------------------|--------------------------------|
-------|--------------------------------|--------------------------------|
-------|--------------------------------|--------------------------------|
-------|--------------------------------|--------------------------------|

Verse: Ah.______________________________________
(Em) end Rhythm figure 1
|--------------------------------|--------------------------------|
|5p0h8p0h5p0h8p0h5p0h8p0h5p0h8p0h|5p0h8p0h5p0h8p0h5p0h8p0h5p0h8p0h|
|--------------------------------|--------------------------------|
|--------------------------------|--------------------------------|
|--------------------------------|--------------------------------|
|--------------------------------|--------------------------------|

with Rhythm figure 1
Ah._________________________________________
| | |

Ah._________________________________________
| | |


Ah.________________________________________
(B)
Rhythm figure 2 (Angus) end Rhythm figure 2
|-----------------------------------|--------------------------------|
|12p0h10p0h9p0h10p0h9p0h7p0h9p0h5p0h|7p0h4p0h5p0h4p0h5p0h4p0h5p0h4p0h|
|-----------------------------------|--------------------------------|
|-----------------------------------|--------------------------------|
|-----------------------------------|--------------------------------|
|-----------------------------------|--------------------------------|

with Rhythm figure 2 (39 times)
Ah.____________________ Ah._____________________
| | | | |
Ah.____________________ Thunder, ah.____________________
| | | | |
Thunder, ah.___________________ Thunder, ah.____________________
| | | | |
Thunder, ah.___________________ Thunder, ah.____________________
| | | | |
Thunder, ah.___________________
| | |

Thunder!
(B5)
Rhythm figure 3 (Malcolm) end Rhythm figure 3
P.M. - - - - - - - - - - - - - - - - - - - - - - - - - - - - - - -|
|----------------------------------|-------------------------------|
|----------------------------------|-------------------------------|
|------4-----4-----4---4-----4-----|---4-----4-----4---4-----4-----|
|------4-----4-----4---4-----4-----|---4-----4-----4---4-----4-----|
|----2---2-------2-------2-------2-|-2---2-------2-------2-------2-|
|----------------------------------|-------------------------------|

with Rhythm figure 3 (26 times)
Thunder Thunder Thunder
| | | | | |

I was caught_ in the mid-dle of a rai-road track,_
| | | |

____ (Thunder!) I looked'round,_ and I knew_
| | | |

___ there was no turn-in' back. (Thunder!) My mind raced_
| | | |

___ and I thought_ what_ could I do,____
| | | |

(Thunder!) And I knew_ there was no_ help, no help from
| | | |

you. (Thunder!) Sound of the drums, Beat-in' in my
Rhythm figure 4 end Rhythm figure 4
B5 A5 E5 A5 E5
|------|-----------------------|-------------------|------------------------|
|------|-----------------------|-------------------|------------------------|
|------|-----------------------|-------------------|------------------------|
|------|-----------------------|-4-----------2-----|---2---2----------------|
|------|-----------------------|-2-----------0-2---|---0---0---2------------|
|------|-----------------------|---------------0---|-----------0------------|

heart, The thunder of drums, yeah, Tore me a-
| | | | |

part You've been thunder-
| | | | |

struck! Rode down the
B5________________________________________________________
| | | | |

highway,_ broke the limit, we hit the town,____ Went through to
| | | | |

Texas,_ yeah_ Texas,_ and we had some fun We met some
B5___________________________________________________________________
| | | | |

girls, some dancers who gave a good time,____ Broke all the
B5___________________________________________________________________
| | | | |

rules, played all the fools, yeah,_ yeah, they, they, they blew our minds
B5________________________________________________________________________
| | | | ||

I was shakin' at the knees, Could I
Rhythm figure 5 end Rhythm figure 5 with Rhythm figure 5
B5 A5 E5 A5 B5 A5 E5
|--------------------|---------------------------|------------------------|
|--------------------|---------------------------|------------------------|
|-4------2-----------|-----------------------2---|------------------------|
|-4------2------2----|-----------------------2---|------------------------|
|-2------0------2----|-----------------------0---|------------------------|
|---------------0----|---------------------------|------------------------|

come again please?_____ Yeah, the ladies were too kind.
Rhythm figure 6 end Rhythn figure 6
A5 B5 A5 E5 A5
|--------------------------|--------------------|-------------------------|
|--------------------------|--------------------|-------------------------|
|--------------------------|-4---2--------------|--------------------2----|
|--------------------------|-4---2---2\---------|--------------------2----|
|--------------------------|-2---0---2\---------|--------------------0----|
|--------------------------|---------0----------|-------------------------|

You've been thuder-struck, Thunder-
Rhythm figure 7 end Rhythm figure 7
with Rhythm figure 2 (35 times)
B5 A5 E5 B5 A5 E5 A5 E5
|---------------|----------||--------------------|------------------------|
|---------------|----------||--------------------|------------------------|
|---------------|----------||--------------------|------------------------|
|---------------|----------||-4---2---------2----|-2----------------------|
|---------------|----------||-2---0---------0-2--|-0-------2--------------|
|---------------|----------||-----------------0--|---------0--------------|

with Rhythm figure 7 (3 times)
struck._ Yeah,_yeah, yeah, thuder-struck,
| | | |

Ooh,_______ thuder-struck.
| | | |

Yeah.__
B5_______________ B5_________________
| | | | |

Ooh, I was shakin' at the knees,____ Could I
A5 B5 A5 B5
guitar 1 _______________________________
|-------------------|------------------------|--------------------------|
|-------------------|------------------------|--------------------------|
|-------------------|------------------------|--------------------------|
|--4---2------4-----|------------------------|-4---2------4-------------|
|--2---0------2-----|------------------------|-2---0------2-------------|
|-------------------|------------------------|--------------------------|
|
|guitar 2
|____ _________________________________________ _______________
|-------------------|------------------------|--------------------------|
|-------------------|------------------------|--------------------------|
|-------------------|------------------------|--------------------------|
|------------4------|------------------------|------------4-------------|
|------------2------|------------------------|------------2-------------|
|-------------------|------------------------|--------------------------|

come again please?_
Guitar solo
E5 B5 A5 E5
___________ ~~ ~~~~~~~~~~~~~~~~~~ ~~~~~~~ ~~~~~~
|-------------------|------------------------|--------------------------|
|-------------------|-9--9-------------------|-10---------9-------------|
|-------------------|-9--9-------------------|-9----------9-----9b(11)--|
|-------------x\----|-9--9------9------------|-11---------9-------------|
|-------------x\----|------------------------|--------------------------|
|-------------------|------------------------|--------------------------|
|
|______________ ~~ Rhythm figure 8 end Rhythm figure 8
|-------------------|------------------------|--------------------------|
|-------------------|------------------------|--------------------------|
|-------------------|------------------------|--------------------------|
|-------------------|-----------4----------2-|-2------------------------|
|---------------x/--|-2---------2----------0-|-0----------2-------------|
|---------------x/--|-0----------------0-2---|------------0-------------|

with Rhythm figure 8 (3 times)
B5 A5 E5
____~~~~ ~~~~~ ____
|-7-------------------------------|-------------------------------------|
|---10-7---7----------------------|-------------------------------------|
|--------9---7--------------------|-------------------------------------|
|--------------9--------\------7--|-7--------------9-----------9b(11)---|
|-------------------------/9------|-------------------------------------|
|---------------------------------|-------------------------------------|

B5 A5 E5
__ ____ ~~~~
|---------------------------------------|------------------------------17b-|
|---------------------------------------|----------------------------------|
|------7-9---11p9p7--11p9p7----11p9p7---|-7b(9)---r7-----------------------|
|----9----------------------9---------9-|----------------9-----------------|
|---------------------------------------|----------------------------------|
|---------------------------------------|-----------------------0--0-------|

B5 A5

|-(19)-17-14---------------------17-14------------|
|-----------17b(19)-17-15-17b(19)-----17-18-17-15-|
|-------------------------------------------------|
|-------------------------------------------------|
|-------------------------------------------------|
|-------------------------------------------------|

E5
_____~~~~~
|------------------------------------------||
|----15b(17)-15b(17)-15b(17)----------\----||
|-16-----------------------------------\---||
|------------------------------------------||
|------------------------------------------||
|------------------------------------------||

Ah.____________________________ Ah.___
B5 A5 B5 A5
||------------------|-------------------------||----------------------|
||------------------|-------------------------||----------------7-----|
||o-------------7---|-7----9-7-9b(11)--9p7---o||o---------------7-----|
||o-4---2-----9---9-|----------------------9-o||o-4------2----9-----9-|
||--2---0-----------|-------------------------||--2------0------------|
||------------------|-------------------------||----------------------|

__________________________________ Ow! Ooh, thuder-
(B5)
~~~~~~~~~~~~~~~~~~~~~~~ ~~~
|--------------------------------||-----------|----------------|
|-7----9---7-9b(10)-----9p7------||-----------|----------------|
|-7----9---7-9b(11)-----9p7----o-||-----------|----------------|
|----------------------------9-o-||-----------|------------x\--|
|--------------------------------||-----------|------------x\\-|
|--------------------------------||-----------|--------------\-|

with Rhythm figure 7 (4 times)
struck, Thunder-struck._ Yeah, yeah, yeah, thunder-
| | | | |

struck, Thunder-struck._ Yeah, yeah, yeah, said
| | | | |

Yeah, it's al-right,_ We're doin'fine,_
fine,fine,_thunder
B5 E5__________ B5 E5___________________
||--------------------|---------|---------------------|------------------||
||--------------------|---------|---------------------|------------------||
||o-------------------|---------|---------------------|-----------------o||
||o-4-----------------|---------|-4-------------------|-----------------o||
||--2---------------2-|---------|-2-----------------2-|------------------||
||--------------2-4-0-|---------|---------------2-4-0-|------------------||

with Rythm figure 7 (8 times)
as lib solo (16 bars)
struck, Yeah, yeah, yeah, thunder-struck._ Thunderstruck,_thunder-
| | | | |

struck. Whoa,__ baby baby thunder-struck._ You've been thunder-
| | | | |

struck. Thunder-struck._ Thunderstruck.
(Ah.___________________) (Ah._____________________)
| | | | |

Thunder-struck. You've been thunder-
(Ah.___________________) (Ah._______________________)
| | | | |

struck.________________
ritard- - - - - - - - - - - - - - - - - - - - - - - - - - -|
B5_________________________________________________________ B5
| | | | | ||
RELATED


:::::::



Fire Your Guns

Intro + theme:
E|-------------------------|---------------------|
B|-------------------------|---------------------|
G|-------2--2-----2--2--2--|--2-------2----------|
D|----2--2--2--2--2--2--2--|--2----2--2----------|
A|----3--0--0--3--0--0--0--|--0----3--0----------|
E|-------------------------|---------------------|

Verse:
wild beast...
|---------------------|---------------------|
|---------------------|---------------------|
|---------------------|---------------------|
|------------2--2--2--|--2----2--2----------|
|------------0--0--0--|--0----3--0----------|
|---------------------|---------------------|

Chorus: fire...
|---------------------|---------------------|
|-----------3---------|---------------------|
|--0--------2----2----|--5----5--2----------|
|--0--------0----2----|--5----5--2----------|
|-----------0----0----|--3----3--0----------|
|--3------------------|---------------------|

fire...
|---------------------|---------------------|
|-----------3---------|---------------------|
|--0--------2----2----|--5----5--2----------|
|--0--------0----2----|--5----5--2----------|
|-----------0----0----|--3----3--0----------|
|--3------------------|---------------------|

fire...
|---------------------|---------------------|--------------------|
|-----------3---------|---------------------|--------------------|
|--0--------2----2----|--5----5--2----------|--9--------7--------|
|--0--------0----2----|--5----5--2----------|--9--------7--------|
|-----------0----0----|--3----3--0----------|--7--------5--------|
|--3------------------|---------------------|--------------------|
fire your
|--------------------|--------------------|--------------------|
|--------------------|--------------------|--------------------|
|--7--------5--------|--5--------5--------|--2-----------------|
|--7--------5--------|--5--------5--------|--2--------5--------|
|--4--------3--------|--3--------2--------|--0--------5--------|
|--------------------|--------------------|-----------3--------|
guns fire your guns
|-------------------------|---------------------|-------------------------|
|-------------------------|---------------------|-------------------------|
|-------2--2-----2--2--2--|--2-------2----------|-------2--2-----2--2--2--|
|----2--2--2--2--2--2--2--|--2----2--2----------|----2--2--2--2--2--2--2--|
|----3--0--0--3--0--0--0--|--0----3--0----------|----3--0--0--3--0--0--0--|
|-------------------------|---------------------|-------------------------|
to verse:
|---------------------|------------------|
|---------------------|------------------|
|--2-------2----------|------------------|
|--2----2--2----------|------------------|
|--0----3--0----------|------------------|
|---------------------|------------------|


to solo part:
|--------------------|---------------------|
|--------------------|---------------------|
|--7------------5----|--5----5--2----------|
|--7------------5----|--5----5--2----------|
|--5------------3----|--3----2--0----------|
|--------------------|---------------------|

|--------------------|---------------------|
|--------------------|---------------------|
|--7------------5----|--5----5--2----------|
|--7------------5----|--5----5--2----------|
|--5------------3----|--3----2--0----------|
|--------------------|---------------------|

|--------------------|---------------------|--------------------|
|--------------------|---------------------|--------------------|
|--7------------5----|--5----5--2----------|--7------------5----|
|--7------------5----|--5----5--2----------|--7------------5----|
|--5------------3----|--3----2--0----------|--5------------3----|
|--------------------|---------------------|--------------------|

|---------------------|-------------------------|---------------------|
|---------------------|-------------------------|---------------------|
|--5----5--2----------|-------2--2-----2--2--2--|--2-------2----------|
|--5----5--2----------|----2--2--2--2--2--2--2--|--2----2--2----------|
|--3----2--0----------|----3--0--0--3--0--0--0--|--0----3--0----------|
|---------------------|-------------------------|---------------------|




:::::


Moneytalks by AC/DC (Young/Young)

fig 1a Guitar 1 (G Gsus2 G Gsus2 Csus2)

|e ------------------|--------------|---------------|---------------|
|b --3---3--3-3--1---|--1-1-1--1--1-|-3-3--3-3--1---|-1-1----1----1-|
|g --4---2--4-2--0---|--4-2-0--2--0-|-4-2--4-2--0---|-4-2--0-0-2--0-|
|D --0---0--0-0--0---|--------------|-0-0--0-0--0---|---------------|
|A --------------3---|--------------|-----------3---|---------------|
|E --3---3--3-3------|--------------|-3-3--3-3------|---------------|

fig 1b GTR.2 |
|e --7---5--7-5--8---|--7-5----5----|-7-5--7-5--8---|-7-x----x-x--x-|
|b --8---8--8-8--8------8-8-8--8--8---8-8--8-8--8---|-8-10\8-8-10-8-|
|g --7---7--7-7--9------5---7-----7---7-7--7-7--9---|-7-7----7-7--7-|
|D -------------------------------------------------|---------------|
|A -------------------------------------------------|---------------|
|E -------------------------------------------------|---------------|

Fig. 2a (4x) Gtr.1 Fig. 2b (4x) with Gtr.2
e ----------------| e ----------------|
b -3--3-----------| b ----------------|
g -0--0-----------| g ----------------| (2 times)
D -0--0-----------| D ----------------|
A ---------1-2----| A -5--5----1-2----|
E -3--3--3-----3--| E -3--3--3-----3--|
Fig.3 D5
...claim is on you the sights are on me So what do you
e ----------------------------------------------------------
b -3-----------3------------3------------3---------3----3---
g -2-----------2------------2------------2---------2----2---
D -0-----------0-0-3-4-0----0------------0-0-3-4-0-0----0---
A ----------------------------------------------------------
E ----------------------------------------------------------
C5 Fig.4 (4 Times)
do, that`s guaranteed? Hey little girl, You want it all...
e ----------------------------------------------------------
b -3-------------3------3-----------------------------------
g -2-------------2------2-----------------5------5----------
D -0-0-3-4-0-----0------0---0-3-4-0-------5------5----1-2---
A ----------------------------------------3------3--3-----3-
E ----------------------------------------------------------

G C5 Gtr.1 & 2
come on,come on lovin` for the money

e ------------------------------------------
b -3--3----3--3-----1---1--1--1--1--1-------
g -4--2----4--2-(0)-0---0--0--0--0--0------- Guitar 2 plays (0)
D -0--0----0--0-----------------------------
A ------------------3---3--3--3--3--3-------
E -3--3----3--3-----------------------------
G5 D5 (pick scratch)
come on,come on listen to the moneytalk
e ------------------------------------------
b -3--3----3--3-----3---------------3----3--
g -4--2----4--2-(0)-2---------------2----2--
D -0--0----0--0-----0---------------0----0--
A ------------------0--------x\-----0----0--
E -3--3----3--3--------------x\\------------
\

Solo
e|-6b-3-3-3-3-3--6b-3-3-3-3-3-----3-3------3-3--6b-6b-6b-6b-6b--3-3-3|
b|-5b-3-3-3-3-3--5b-3-3-3-3-3--/8-3-3--/8--3-3--5b-5b-5b-5b-5b--3-3-3|
g|-------------------------------------------------------------------|
d|-------------------------------------------------------------------|
a|-------------------------------------------------------------------|
e|-------------------------------------------------------------------|

e|--------------------------------------------------------------------|
b|---15-15-15-15-15-15-15--15---------------------15------------------|
g|--(15)14(15)14(15)14(15)(15)^14^12-----14(15)---16--12-12--12-12----|
d|---------------------------------12^14------------------/14-----/17-|
a|--------------------------------------------------------------------|
e|--------------------------------------------------------------------|

e|--------------------------------------------------------------------|
b|----------------15--15--15----------------------------3-----3--5-3-/|
g|-12-12-12-/--12-14b-14b-14b--12v----------------------3-----3--5-3-/|
d|---------------------------------10h12h10/---5-5--5-5--3-5v---------|
a|------------------------------------------5/7---/7------------------|
e|--------------------------------------------------------------------|

e|---------------------------------------18b----18b-18b-18b----------|
b|--15-----x-15-----x-15-----x-15------x-----------------------------|
g|--14(15)-x-14b----x-14b----x-14b-----x-----------------------------|
d|-------------------------------------------------------------------|
a|-------------------------------------------------------------------|
e|-------------------------------------------------------------------|


:::::::::::::::::::::

The Razor's Edge
THE RAZOR'S EDGE

AC/DC
Symbols
h=hammer on
p=pull off
/=slide up
\=slide down
~=vibrato
X=Muffled Strings
()\X\=pick slide down
PM------PM=Palm Mute
{}=pinch harmonic
()=bend
[]=release bend
#=tremolo picking
(X)=Tap with pick on Finger board
TR=Trill

INTRO
e--------------|------------------------------------------------------|
B--------1h3/5-|------0-1-3---0-1-----0-------------------------------|
G--------------|------------2-----0h2----p0-2-----0-------------------|
D--------------|------------------------3p----2-3---0h2h3p2p0-2-0-----|
A--------------|--------------------------------------------------2-2-|
E-0------------|------------------------------------------------------|

e---------------------------------|
B---------------------------------|
G-------------------------------2-|
D-0-----------0---------------0-2-|
A---3p2p0-------3-----0----3~~--0-|
E---------0h1-----1h3---1---------|

RHYTHM FIGURE 1
e-0---0------0-------|---0------0--------0------0--------0------0-----|
B-0---0------0-------|---0------0--------0------0--------0------0-----|
G-4---4h5p2--2h4h5p4-|---4h5p2--2h4h5p4--4h5p2--2h4h5p4--4h5p2--2h4h5-|
D--------------------|------------------------------------------------|
A--------------------|------------------------------------------------|
E--------------------|------------------------------------------------|

RHYTHM FIGURE 2 PLAY 20 TIMES
e-----0-----0-----0-----0-----0-|-----0-----0-----0-----0-----0-|
B-----0-----0-----0-----0-----0-|-----0-----0-----0-----0-----0-|
G-2h4---4h5---2h4---4h5---2h4---|-2h4---4h5---2h4---4h5---2h4---|
D-------------------------------|-------------------------------|
A-------------------------------|-------------------------------|
E-------------------------------|-------------------------------|

FIGURE 3
e---------------------------|--------------------------|-------------------|
B---------------------------|--------------------------|-------------------|
G---------------------------|--------------------------|---------0---------|
D---------------------------|--------------------------|-4---4/5-0--4--2---|
A---------------------------|-(X)-(15)\X\X\-(15)\X\X\X\|-2---2/3----2--0---|
E------(X)-(X)-(X)-(X)--(X)-|-(X)-(15)\X\X\-(15)\X\X\X\|---------3---------|

RHYTHM FIGURE 4 Angus Plays This Part *|* Malcolm Plays this Part
e--------------------|-----------------------|------------|-------------|
B--------------------|-----------------------|-------2h3p2|------2h3p2--|
G--------------------|-----------------------|-------2h3p2|------2h3p2--|
D-2---2---2----------|----2---2---2----------|-2-2-2------|2-2-2--------|
A-2---2---2--0h2p0---|----2---2---2-0h2p0----|-2-2-2------|2-2-2--------|
E-0---0---0--------3-|-0--0---0---0-------3-0|-0-0-0------|0-0-0--------|



Figure 5 Angus' Part (x8)*|* Malcolm's Part (x2)
e-------------------------|----------------------------------------3-|
B-----8-----8-----8-----8-|-3--------------------------------------3-|
G-5h7---5h7---5h7---5h7---|-2--------------------------------------0-|
D-------------------------|-0--------------------------------------0-|
A-------------------------|-0----------------------------------------|
E-------------------------|----------------------------------------3-|

Guitar Solo (Malcolm Plays RHYTHM FIGURE 2 and 3 throughout)
^^^^^ tr___ ^^^^^^^^^^ ^^^^^
e|-----------------------------------------------------------------
b|-8-b-10---8-7-5-5------------------------------------------------
g|------------------7-5------------------------------------7-7-9---
D|-----------------------7-7----5-(7)---5-h-7-----2-2-0------------
A|-----------------------------------------------------------------
E|-----------------------------------------------------------------

e|--------------------------------10-10-10-10-10-------------------
b|-------5-5---------------5-8----10-12-12-12-12-10-8-10-12-10-----
g|-7-b-9------7-b-9--7-b-9-----------------------------------------
D|-----------------------------------------------------------------
A|-----------------------------------------------------------------
E|-----------------------------------------------------------------

P.H.______________ PH
e|--------------------------------------------------------0-3-------
b|------------------------------------------------------------3-2-0-
g|--------2-b-4---2-b-4-2-b-4-2-b-4-2-b-4---2-----2-b-4-------------
D|----------------------------------------2-------------------------
A|-2-/--------------------------------------------------------------
E|------------------------------------------------------------------

e|------------------------------------------------------------------
b|------------------------------------------------------------------
g|-3-2-0------------------------------------------------------------
D|-------2-4-2-0------------------------5---7--5-------------7-X-5--
A|---------------2-4-2-0----5-b-6--7-7----7-------------------------
E|------------------------3------------------------5-3-0------------


> > >
e|------------------------------------------------------------------
b|-------------------------------------8-b-10--10-b-12-r-11-b-12-r--
g|------------------------------7-9-9-------------------------------
D|-X-7-b-8-r-7-5-7-X-5-X--7-/-9-------------------------------------
A|------------------------------------------------------------------
E|------------------------------------------------------------------

e|------------12-p-0-15-14-p-12--14-p-12----------------------------
b|-11-12-b-12------------------------------15-12-14-12-14-12--------
g|------------------------------------------------------------15-12-
D|------------------------------------------------------------------
A|------------------------------------------------------------------
E|------------------------------------------------------------------

e|------------------------------------------------------------------
b|------------------------------------------------------------------
g|-14-12----12-14-12------------------------------------------------
D|-------14-----------14--12----------------------------------------
A|---------------------------14-\-12-10-12-10-10-12-10-12-\---------
E|-----------------------------------------------------------/-17-\-
:::::::::::::::::::::::::

Mistress For Christmas


D A D D A G5 D D A
|-2-------------2--|-2---------------|-3-------2-------|-2------------------
|-3---2---------3--|-3---2-----------|-3-------3-------|-3-------2----------
|-2---2---------2--|-2---2-----------|-0-------2-------|-2-------2----------
|-0---2---------0--|-0---2-----------|-0-------0-------|-0-------2----------
|-0---0---------0--|-0---0-----------|---------0-------|-0-------0----------
|------------------|-----------------|-3---------------|--------------------
Jingle bells, Jingle bells jingle all the day


D A D D A G5 D D A
|------------------|----------------5|-----------------|--------------------
|------------------|--------------5--|-8-5-------------|--------------------
|------------------|--------5-7^9----|-----7-5-7---5---7/8\7-5--------------
|------------------|------7----------|---------------7-|------------5h7-----
|------------------|-----------------|-----------------|-----------7--------
|------------------|-----------------|-----------------|--------------------|
I just can't wait till X-mas time when I'll be rollin' in the hay

D A D D A G5 D D A
Easy come Easy go Have a good time with lots of dough
Slipping up high Slippin' down low Love'em and leave 'em on with the show

D A D D A G5 D D A
|------------------|-----------------|-----------------|---------8^10v8-5---
|------------------|-----------------|-----------------|--------------------
|------------------|-----------------|-----------------|--------------------
|------------------|------5---5------|-5-^^^^7---------|-5\\\---------------
|------------------|-----------------|-----------------|--------------------
|------------------|-----------------|-----------------|--------------------
Ah ah ah , yeah all right

D A D D A G5 D D A
|------------------|-----------------|-----------------|--------------------
|-8^10----8-5------|-----------------|-----------------|--------------------
|-------------9\7~~|-7^9v7-5~~~~-----|-5---------------|--------------------
|------------------|-----------------|---7--5--5-------|-7------------------
|------------------|-----------------|-----------------|--------------------
|------------------|-----------------|-----------------|--------------------
Listen, I like

D A D D A G5 D D A
female form in mimimum dress Money to spend with a capital 'S'
Get a date with a woman in red Wanna be in heaven with three in a bed

D A G5 D D A G5 D
|------------------|-----------------|-----------------|--------------------
|------------------|-----------------|-----------------|--------------------
|-2~~~~~~~~~~~~~~--|--------7^9-7-5--|-7^9~~~~~~~~-----|--------------------
|------------------|-----------------|-----------------|--------------------
|------------------|-----------------|-----------------|--------------------
|------------------|-----------------|-----------------|--------------------
He got it I want it They got it I can't have it

D A G5 D D A G5 D
|------------------|-----------------|-------------------|--15-------15--15|
|------------------|-----------------|-15^17-15^17--15^17|-----15^17--15^17|
|-14~~~~~~~~~~~~~--|-----------------|-------------------|-----------------|
|------------------|-----------------|-------------------|-----------------|
|------------------|-----------------|-------------------|-----------------|
|------------------|-----------------|-------------------|-----------------|
But I want it, but it don't matter She got it I can't get it

G5 D G5 D
|------------------------------------|--------------------------------------
|------------------------------------|--------------------------------------
|-7-8v7-7-8v7--5-7-8v7-7-8v7-5-7-8v7-|--7-8v7---------5---------------------
|------------------------------------|---------------------7----------------
|------------------------------------|--------------------------------------
|------------------------------------|--------------------------------------
I wanna

D A D D A G D D A
|------------------|------------5----|-----------------|--------------------
|------------------|----------5------|-8^10---8-5------|--------------------
|------------------|------7^9--------|-----------8-7-5-|--------------------
|------------------|-----------------|-----------------|-5-----------7------
|------------------|-----------------|-----------------|--------------------
|------------------|-----------------|-----------------|--------------------
mistress for Christmas I wanna

D A D D A G D D A
|------------------|---------------|-------------------------|--------------
|------------------|--------13--10-|12^13vv12^13v12-10-12^13-|v12-10-10-10--
|------------------|------14--14---|-------------------------|--------------
|------------------|---------------|-------------------------|--------------
|------------------|---------------|-------------------------|--------------
|------------------|---------------|-------------------------|--------------
mistress for Christmas Ah, yeah

E5 B5 A5 E5 B5 A5 E5
|------------------|-----------------|-----------------|--------------------
|--(second guitar play 9 and hold vibrato throughout 7 bars)----------------
|--------4---------|-2---------------|-----4-----------|-2------------------
|-2(9~~~)4(~~~~~~~)|-2(~~~~)2(~~~~~~)|(~~~)4(~~~~~~~~~)|-2(~~~~~)2(~~~~~~~~)
|-2------2---------|-0------2--------|-----2-----------|-0-------2----------
|-0----------------|--------0--------|-----------------|---------0----------
Ha,ha yeah I wanna

E5 B5 A5 E5 B5 A5 E5
|------------------|-----------------|-------------|------------------------
|------------------|-----------------|-------------|------------------------
|------------------|-----------------|-------------|-9^11v9-7-9^11v9-7-9^11-
|-~~~~~~~~~~~~~~~~-|-~~~~~~~~~~~~~~~-|-~~~~~~~~~~~~|------------------------
|------------------|-----------------|-------------|------------------------
|------------------|-----------------|-------------|------------------------
mistress for Christmas Come on !

[guitar solo]
B5 A5 E5 B5
|-----------------------|-------------------------|-----------7------------|
|-----------------------|-------------------------|------------------------|
|-9^11--~~~~~~----------|---9^11--v9-7-9^11v9-----|7---7-9-10---10-9-7---7-|
|----------------7\\\\\-|-0-----------------------|--9-----------------9-9-|
|-----------------------|-------------------------|-------------------------
|-----------------------|-------------------------|------------------------|

A5 E5 B5 A5 E5
|-----------------------|-------10-----10^11-------------|-----------------|
|-----------------------|----12-----12--------12-10------|------------17^19|
|----------------2/////-|-11------------------------11-10|-9-7-9-7^9-------|
|-9--7------------------|--------------------------------|-----------9-----|
|-----------------------|--------------------------------|------------------
|-----------------------|--------------------------------|-----------------|

B5 A5 E5
|-----------------------|----17-----17-----17-----|
|---17-15-----------17^-|-19-----17^19--17^19-----|
|---------16-16~~~~-----|-------------------------|
|-----------------------|-------------------------|
|-----------------------|-------------------------|
|-----------------------|-------------------------|

G5 D A G5 D A
|------------------|-----------------|-5----------------|-------------------
|------------------|-----------------|---8-5------------|-------------------
|------------------|---------7^9-----|-------8-7-5-7-7-5|~~~~~--------------
|------------------|-----------------|------------------|-------------------
|------------------|-----------------|------------------|-------------------
|------------------|-----------------|------------------|-------------------
Easy come, Easy go

G5 D A G5 D A
|------------------|---------15^17---|-15^17-15^17--15^17v15--15^17-15^17---
|------------------|-----------------|-----------------|--------------------
|------------------|-----------------|-----------------|--------------------
|------------------|-----------------|-----------------|--------------------
|------------------|-----------------|-----------------|--------------------
|------------------|-----------------|-----------------|--------------------
Slippin' high Slipping low yeah Allright,

D A G5 D D A G5 D
He got it I want it They got it I can't have it
I want it don't have She got it and I can't get it
(mistress)He got it I want it(X-mas)They got it and I can't have it
(mistress)I want it it don't have it She got it knock 'em down

D A D A G5 G D
(mistress) (for Christmas)

D A D A G5 DD G5 D
(mistress) (for X-mas) You got to send them down You got to send them down
(mistress) (for X-mas) I want the woman in the rear with a bottle of my beer
(mistress) (for X-mas)

G5 D
|---------------------------------------------------------------------------
|-8^10-8-7-5h7p5------------------------------------------------------------
|----------------8-7-5---7-5-7-7^9------------------------------------------
|----------------------7----------------------------------------------------
|---------------------------------------------------------------------------
|---------------------------------------------------------------------------
I can hear you coming down that snowstack,yeah


D A
|------------------------------------------------------|--------------------
|-8^10(10)-8-7-5h7p5-----------------------------------|--------------------
|--------------------8p7p5---7-5-----------------------|--------2-----------
|--------------------------7-----7--5------------------|--------2-----------
|-------------------------------------7-6-5-3-5-3h4----|--------0-----------
|------------------------------------------------------|--------------------
I wanna ride on your reindeer honey and ring your bells yeah


-=-=-=-=-=-=-=-=-=-=-=-=-=-=-=-=-=-=-=-=-=-=-=-=-=-=-=-=-=-=-=-=-=-=-=-=-=-=-
^ : bend h : hammer on
v : release p : pull off
/ : slide up ~ : vibrato
\ : slide down () : hold bend and pick again



:::::::::::::::::::::::::::::::::
Rock Your Heart Out

All around that riff
----------------------------------------------
----------------------3--------------------------
--(2)-2--0--2-----2-0-2--------------------------
--(2)-2--0--0-----2-0-0--------------------------
--(0)-0-----------0------------------------------
---------3----------3--------------------------

::::::::::::::::::

Are You Ready

Intro:
E|--------0-----------0-----|--------0-----------0-----|
B|-----------3-----------3--|-----3-----3-----3-----3--|
G|-----2-----------2--------|--------------------------|
D|--0-----------0-----------|--------------------------|
A|--------------------------|--3-----------3-----------|
E|--------------------------|--------------------------|

|--------0-----------0-----|--------0-----------0-----|
|-----3-----3-----3-----3--|-----3-----3-----3-----3--|
|--------------------------|--------------------------|
|--------------------------|--------------------------|
|--2-----------2-----------|--3-----------3-----------|
|--------------------------|--------------------------|

|--------0-----------0-----|--------0-----------0-----|
|-----------3-----------3--|-----3-----3-----3-----3--|
|-----2-----------2--------|--------------------------|
|--0-----------0-----------|--------------------------|
|--------------------------|--3-----------3-----------|
|--------------------------|--------------------------|

|--------0-----------0-----|--------0-----------0-----|
|-----3-----3-----3-----3--|-----3-----3-----3-----3--|
|--------------------------|--------------------------|
|--------------------------|--------------------------|
|--2-----------2-----------|--3-----------3-----------|
|--------------------------|--------------------------|

|--------0-----------0-----|--------0-----------0-----|
|-----------3-----------3--|-----3-----3-----3-----3--|
|-----2-----------2--------|--------------------------|
|--0-----------0-----------|--------------------------|
|--------------------------|--------------------------|
|--------------------------|--2-----------2-----------|

|--------0-----------0-----|--------0-----------0-----|
|-----3-----3-----3-----3--|-----3-----3-----3-----3--|
|--------------------------|--------------------------|
|--------------------------|--------------------------|
|--------------------------|--------------------------|
|--3-----------3-----------|--1-----------1-----------|

|--------0-------------|------------------|
|-----3-----3----------|------------------|
|----------------------|------------------|
|----------------------|------------------|
|----------------------|------------------|
|--1-------------------|------------------|

Intro 2nd guitar:
E|--|--|--|--|--|--|--|--|-------------------|-------------------|
B|--|--|--|--|--|--|--|--|-------------------|-------------------|
G|--|--|--|--|--|--|--|--|-------------------|-------------------|
D|--|--|--|--|--|--|--|--|--7----------------|-------------------|
A|--|--|--|--|--|--|--|--|--5----------------|--5----------------|
E|--|--|--|--|--|--|--|--|-------------------|--2----------------|

|-------------------|-------------------|-------------------|
|-------------------|-------------------|-------------------|
|-------------------|-------------------|-------------------|
|-------------------|-------------------|-------------------|
|--5----------------|--3----------------|--3----------------|
|--3----------------|--1----------------|--1----------------|


verse riff:
|-------------------------|---------------------|
|-------------------------|---------------------|
|--7--7--7--5--5--7----7--|-----------5---------|
|--7--7--7--5--5--7----7--|------3----5----5----|
|--5--5--5--3--3--5----5--|------3----3----5----|
|-------------------------|------1---------3----|

|-------------------------|---------------------|
|-------------------------|---------------------|
|--7--7--7--5--5--7----7--|-----------5---------|
|--7--7--7--5--5--7----7--|------3----5----5----|
|--5--5--5--3--3--5----5--|------3----3----5----|
|-------------------------|------1---------3----|

Pre-chorus (2nd guitar as intro):
who all need it who
|--------0-----------0-----|--------0-----------0-----|
|-----------3-----------3--|-----3-----3-----3-----3--|
|-----2-----------2--------|--------------------------|
|--0-----------0-----------|--------------------------|
|--------------------------|--------------------------|
|--------------------------|--2-----------2-----------|

who all need it you
|--------0-----------0-----|--------0-----------0-----|
|-----3-----3-----3-----3--|-----3-----3-----3-----3--|
|--------------------------|--------------------------|
|--------------------------|--------------------------|
|--------------------------|--------------------------|
|--3-----------3-----------|--1-----------1-----------|

who all need it who all need it
|--------0-----------0-----|--------0-----------0-----|
|-----------3-----------3--|-----3-----3-----3-----3--|
|-----2-----------2--------|--------------------------|
|--0-----------0-----------|--------------------------|
|--------------------------|--------------------------|
|--------------------------|--2-----------2-----------|

you all breathe it we all need it
|--------0-----------0-----|--------0-----------0-----|
|-----3-----3-----3-----3--|-----3-----3-----3-----3--|
|--------------------------|--------------------------|
|--------------------------|--------------------------|
|--------------------------|--------------------------|
|--3-----------3-----------|--1-----------1-----------|

Chorus:
ready for a good time
|------------------------|------------------------|
|------------------------|------------------------|
|------------------------|------------------------|
|--7--7--7--5--5--7------|--5--5--5--5--5--5------|
|--5--5--5--3--3--5------|--3--3--3--2--2--3------|
|------------------------|------------------------|
ready for a night line
|------------------------|------------------------|
|------------------------|------------------------|
|------------------------|------------------------|
|--0--0--0--0--0--0------|--5--5--5--5--5--5------|
|--2--2--2--0--0--2------|--3--3--3--2--2--3------|
|------------------------|------------------------|


The lick Angus play's after the 1st chorus

e|-10^^^---------------------------------------------|
b|-10^^^-12^^-12^^10^^-------------------------------|
g|-------12^^-12^^10^^--12-bend 1/2 step--12/ slide--|
A|---------------------------------------------------|
E|---------------------------------------------------|

B=bend
R/B=release bend
^^^=Vibrato
P.H=Pinch Harmonic
/ or \= Slide
H=Hammer on



*

«  Июнь 2018  »
ПнВтСрЧтПтСбВс
    123
45678910
11121314151617
18192021222324
252627282930

*

ПАРТНЕРЫ:


Fan Site Geordie 2008 - 2018