GEORDIE - Powerage (album)


Powerage (album) Тип: табулатура


Powerage Album


Rock n roll damnation


Riff A
-----------------------------------|
----------8---------------7--------|
--------9---------------7----------|
------7---------------7------------| x2
---0----------------0--------------|
-----------------------------------|

Riff B
-----|------------------------------|
-----|----3--3--------3--3----------|
---2-|----2--2--2-----2--2------2---|
---2-|----4--4--2-----4--4------2---| x12
---0-|0---0--0--0--0--0--0--3-4-0---|
-----|------------------------------|

chorus
"And its a rock n roll damnation"
------------3------2--------------------------|
------------3------3--------------3--3--------|
------------0------2--------2-----2--2--2-----|
------------0------0--------2-----4--4--2-----| x3
----------------------------0-0---0--0--0-----|
------------3---------------------------------|

"take your chance while you still got the choice"
---3--------------------------------------------------|
---3--------------------------------------------------|
---0--------------------------------------------------|
---0---------------4----------------------------------|
-------------------4----------------------------------|
---3---------------2----------------------------------|

Play Riff B x10

Play chorus

Play Riff A x2

bridge
Play Riff A X2 (malcolm randomly hits the A chord over and over)

Play chorus

Guitar solo
..."choice"......
------------------------------------------------------|
---------------17--17------17-17-17-17----------17----|
--------16(18)-----14------14-14-14-14---16(18)----14-|
-----------------------16-----------------------------|
------------------------------------------------------|
------------------------------------------------------|

---------------17--------17--------17--------17--------|
----------17------17--------17--------17---------------|
---16(18)---------16(18)----16(18)----16(18)----16(18--|
-------------------------------------------------------|
-------------------------------------------------------|
-------------------------------------------------------|

---17-|--------17-| |----| ---| --------------17-| ----| |-17|
------|-----------| |----| -17| --------17-17----| -17-| |---|
------|-16(18)----| |----| ---| --19(21)---------| ----| |---|
------|-----------|x9 |-/18| ---|x19 -----------------| ----|x5 |---|
------|-----------| |----| ---| -----------------| ----| |---|
------|-----------| |----| ---| -----------------| ----| |---|

Play riff B x6

End with A chord



Down payment blues

------------------------------|
------------------------------|
--------2------------2--------|
---2-2--2-------2-2--2--------|
---2-2--0-------2-2--0--------|
---0-0----------0-0-----------|

Riff A
-----------------------|
-----------------------|
-----2---2---2---------|
-----2---2---2---2-----|x5
-----0---0---0---2-----|
---0---0---0---0-0-----|

Riff B
-----------------------|
-----------------------|
-----4---4---4---------|
-----4---4---4---4-----|x2
-----2---2---2---4-----|
---2---2---2---2-2-----|

Riff C
-----------------------|
-----------------------|
-----7---7---7---------|
-----7---7---7---7-----|x2
-----5---5---5---7-----|
---5---5---5---5-5-----|

Riff D
-----------------------|
-----------------------|
-----9---9---9---------|
-----9---9---9---9-----|x10
-----7---7---7---9-----|
---7---7---7---7-7-----|

Play Riff C

Play Riff A

Play Riff D x6

Play Riff C

Play Riff A

Play Riff D x2

now this
----------------------------------------|
-----3----------------------------------|
-----2--------2--------------9----9\----|
-----0--------2--------------9----9\----|
---0----------0--------------7----7\----|
------------0--------------7----7-------|


Guitar solo
-------| -------------------10------------------------------|
-------| ---13(15)-13(15)------10-13----10------------------|
-------| ----------------------------12----10---------------|
---7h9-|x4 -------------------------------------12----10-9-7--|
-------| ---------------------------------------------------|
-------| ---------------------------------------------------|

--------------------------------------------------------------|
--------------------------------------------------------------|
------------------------------------5-7----7---5--------------|
---5-7-3-3-------3--5-5p3---5-3-5/7------7---x-----------7h9--|
-----------5-0h5----------5-----------------------------------|
--------------------------------------------------------------|

--------------------------------------------12----------------|
-----------13(15)--13(15)--13(15)--15(17)------15p12----12----|
---7-7-----------------------------------------------14-------|
--------------------------------------------------------------|
--------------------------------------------------------------|
--------------------------------------------------------------|
R
--------------------------------------------------------------|
-----------------------------20(24)----(20)--17--19(21)-------|
---15p14p12-14----12------------------------------------------|
---------------14----14\--------------------------------------|
--------------------------------------------------------------|
--------------------------------------------------------------|
H.B....................................
(keep bending in and out of (21) and (20))
--------------------------------------------------------------|
---19(21)------------------------------------15---------------|
------------------------------------------------16----17(19)--|
--------------------------------------------------------------|
--------------------------------------------------------------|
--------------------------------------------------------------|

---14-17-14-16-15-14-------------------20(22)---20(22)--20(22--|
---------------------1p15p14-15--------------------------------|
--------------------------------16\----------------------------|
---------------------------------------------------------------|
---------------------------------------------------------------|
---------------------------------------------------------------|
let ring.............
---20-17---------------------------------17-------------------|
---------20-18-----------17-17---17(19)------17(19)-----------|
---------------19-----16--------------------------------------|
--------------------------------------------------------------|
--------------------------------------------------------------|
--------------------------------------------------------------|

---------------0----------------------------------------------|
-----------------0-3------------------------------------------|
---2(4)--2(4)--------3p2p0------------------------------------|
---------------------------2~~~~~~~~~~------------------------|
--------------------------------------------------------------|
--------------------------------------------------------------|

Use the same riffs for the rest



Gimme A bullet


Intro:

E|-----------------------|-----------------------|-----------------------|
B|-----------------------|-----------------------|-----------------------|
G|---------------2----0--|---------------2----0--|---------------0----2--|
D|--2----2-------2----0--|--2----2-------2----0--|--2----2-------0----2--|
A|--0----0----3b---------|--0----0----3b---------|--0----0----3b---------|
E|-----------------------|-----------------------|-----------------------|

2nd guitar
|-----------------------|---------------------|--------------------|
|-----------------------|-------------3----3--|------------3----3--|
|---------------2----2--|--2----------0----0--|------------0----0--|
|--2----2-------2----2--|--2----------4----5--|------------4----5--|
|--0----0----3b---------|--0------------------|--------------------|
|-----------------------|---------------------|--------------------|

|--------------------|------------------|---------------------|
|------------3-------|------------------|-------------3----3--|
|------------0----2--|------------------|--2----------0----0--|
|------------4----2--|------------------|--2----------4----5--|
|-----------------0--|------------------|--0------------------|
|--------------------|------------------|---------------------|

|--------------------|--------------------|--------------------|
|------------3----3--|------------3-------|--------------------|
|------------0----0--|------------0----2--|--------------------|
|------------4----5--|------------4----2--|--------------------|
|--------------------|-----------------0--|--------------------|
|--------------------|--------------------|---------------------|

Verse:
|------------------3--|-----------------3--|--------------------|
|-------------3----3--|------------3----3--|------------3-------|
|--2----------2----0--|------------2----0--|------------2----2--|
|--2----------0-------|------------0-------|------------0----2--|
|--0------------------|--------------------|-----------------0--|
|---------------------|--------------------|--------------------|

|------------------|------------------3--|-----------------3--|
|------------------|-------------3----3--|------------3----3--|
|------------------|--2----------2----0--|------------2----0--|
|------------------|--2----------0-------|------------0-------|
|------------------|--0------------------|--------------------|
|------------------|---------------------|--------------------|

Chorus:
|--------------------|----------------------|----------------------|
|------------3-------|----------------------|----------------------|
|------------2----2--|------2------2--2-----|--5----5------5----7--|
|------------0----2--|------2------2--2-----|--5----5------5----7--|
|-----------------0--|------0------0--0--0--|--3----3------3----5--|
|--------------------|----------------------|----------------------|

|----------------------|----------------------|-----------------------|
|----------------------|----------------------|-----------------------|
|------7------7--7-----|--5----5------5----7--|----7--7------7--7-----|
|------7------7--7-----|--5----5------5----7--|----7--7------7--7-----|
|------5------5--5--0--|--3----3------3----5--|----5--5------5--5--0--|
|----------------------|----------------------|-----------------------|

|----------------------|----------------------|------------------------|
|----------------------|----------------------|------------------------|
|--5----5------5----7--|------7------7--7-----|---------------------4--|
|--5----5------5----7--|------7------7--7-----|--3----3----3--3--3--5--|
|--3----3------3----5--|------5------5--5--0--|--3----3----3--3--3--5--|
|----------------------|----------------------|--1----1----1--1--1--3--|

|----------------------|
|----------------------|
|----4--4----4----4----|
|----5--5----5----5----|
|----5--5----5----5----|
|----3--3----3----3----|


Riff raff


hit the palm muted parts rapidly
Riff A
(p.m. on all 0's)
|-------------------------------------------------|
|-------------------------------------------------|
|------7------7------7------7------7------7-------|
|------4------5------4------5------4------5-------|
|--0-0----0-0----0-0----0-0----0-0----0-0---------|
|-------------------------------------------------|
End Riff A
-------------------------------------------------|
-------------------------------------------------|
-------7------7------7------7------7---------2---|
-------4------5------4------5------4---------2---|x5
---0-0----0-0----0-0----0-0----0-0-----------0---|
-------------------------------------------------|

Riff B
|-------------------------------------------------|
|-------------------------------------------------|
|---2-2-2-----------------------------------------|
|---2-2-2-----------2-4-------5-------------------|x8
|---0-0-0----0-3h4-------3p0-----3p0--------------|
|-------------------------------------------------|

Riff C End Riff C
|---------|--2--2---3-3---2-----------------------|
|---------|--3--3---3-3---3-----------------------|
|---2-2-2-|--2--2---0-0---2-----------------------|
|---2-2-2-|--0--0---0-0---0-----------------------|x4
|---0-0-0-|---------------------------------------|
|---------|---------3-3---------------------------|

Play Riff B x2

Play Riff C x4

Riff D
|--------------------------------------|
|--------------------------------------|
|--------------------------------------|
|----5/6---5/6---5/6---5/6-------------|x2
|----4/5---4/5---4/5---4/5---5-6-------|
|---0-----0-----0-----0-----0----------|

Play Riff B x4

----------------------------------------|
----------------------------------------|
---0h2----------------------------------|
---0h2----------------------------------|
---0------------------------------------|
----------------------------------------|

"Seen it.....heard on.....radio"
-----------------------------------------------|
----------------------------------7(8)(7)------|
--0h2---------0h2-----------------7(8)(7)------|
--0h2---------0h2------------------------------|
--0-----------0--------------------------------|
-----------------------------------------------|

"It aint....down in Mexico"
-----------------------------------------------|
--------------------------------7(8)(7)--------|
--0h2-------0h2-----------------7(8)(7)--------|
--0h2-------0h2--------------------------------|
--0---------0----------------------------------|
-----------------------------------------------|

"The bar...tell me.........it's really.....the end"
------------------------------------------------------------|
------------------7(8)(7)-----------------------------------|
--0h2-------------7(8)(7)--------0h2----------------7(8)(7)-|
--0h2----------------------------0h2----------------7(8)(7)-|
--0------------------------------0--------------------------|
------------------------------------------------------------|

"Say...prayer................................
-----------------------------------------------|
-------------7(8)(7)--------7(8)(7)------------|
--0h2--------7(8)(7)---0h2--7(8)(7)------2-2-2-|
--0h2------------------0h2---------------2-2-2-|
--0--------------------0-----------------0-0-0-|
-----------------------------------------------|

Play Riff C x4

Play Riff B x2

Play Riff C x4

Play Riff D x2

Guitar solo
-----------------------------------------------------------------|
-----------------------------------------------------------------|
----------------5------------5-----5---------4h5p4--4h5---4h5----|
---7-7-7-7---------7--7---------7-----7-7-7-------------7-----7--|
------------x-7---------x-x-x----x-------------------------------|
-----------------------------------------------------------------|

-------------------------------------------10-8p7----8p7---------|
--------------------5--4-----------------8--------10-----10--8p7-|
---4h5-4----4h5-4-7------7-5-4-----------------------------------|
----------7--------------------7-7-------------------------------|
-----------------------------------------------------------------|
-----------------------------------------------------------------|

----------------------------------------------------------------|
----------------------------------------------------------5-8p5-|
---9-7-7\5-7--5-4-------------------------------7---6-6-7-------|
------------------7-5-7-5-4-------4---5-7-5-7/9---9-------------|
----------------------------7-5-7---7---------------------------|
----------------------------------------------------------------|

----------5-8p5-7p5-8p5-7p5-8p5-7p5-8-8-7p5-5h7p5-8-5-5h7p5-8-5-|
---7--6-8-------------------------------------------------------|
----------------------------------------------------------------|
----------------------------------------------------------------|
----------------------------------------------------------------|
----------------------------------------------------------------|

---5h7p5-8-5-7-7p5-7-5-8-7p5-8\--10(12)--8-------8-9------------|
-------------------------------------------10\-------10-10-13---|
----------------------------------------------------------------|
----------------------------------------------------------------|
----------------------------------------------------------------|
----------------------------------------------------------------|

---12-------12-15p12-13--15p12-13- |15p12-14p12-| ---15p12--15\--|
---------------------------------- |------------| ---------------|
-------14------------------------- |------------| ---------------|
---------------------------------- |------------|x5---------------|
---------------------------------- |------------| ---------------|
---------------------------------- |------------| ---------------|

Play Riff D x4

---14h16----0-9-0-7-0---------------|-------| ------------7--5--|
---------15-----------7(8)----8p7---|-7p8p5-| -7-7(8)---8----5--|
----------------------------------9-|-------| ------------------|
------------------------------------|-------|x7 ------------------|
------------------------------------|-------| ------------------|
------------------------------------|-------| ------------------|

---------------------5-8p5-7p5---5---5----------------------------|
---8p7p5-7h8p7p5-7h8-----------8---8---8p5-8p5---5----------------|
-----------------------------------------------8---8-7p5---7p5----|
---------------------------------------------------------7--------|
------------------------------------------------------------------|
------------------------------------------------------------------|

----------8-----5-------------------------------------------------|
------------------8-8h10-8-7-8p7-5-7-7-------5-7-7(8)--5----------|
----------------------------------------------------------5-7-5---|
---7p5-/----------------------------------------------------------|
------------------------------------------------------------------|
------------------------------------------------------------------|

-----------------------------------------------------12-11-10h11p10-|
--------------------------------------------------10----------------|
------------------2--4(6)-x-2---------2-----2-----------------------|
---5-5--4\2-4-----------------4p2-----------------------------------|
--------------3h4-----------------3p0---3p0-------------------------|
--------------------------------------------------------------------|

-----------------------------------|
---13-12-10-12(13)------10\--------|
-----------------------------------|
-----------------------------------|
-----------------------------------|
--------------------------------0--|

Play Riff D x2

------------------------------------------------------|
---17-----5-----7-----9-9-9--10-10-10--12-12-12-------|
---17-----5-----7-----9-9-9--10-10-10--12-12-12-------|
---17-----5-----7-----9-9-9--10-10-10--12-12-12-------|
------------------------------------------------------|
------------------------------------------------------|

Outro
Tremolo picking....
--------------------------------------|
--------------------------------------|
----------------------14-14-14\---2---|
--------4-2-----------11-12-11\---2---|
--3-4-0-----3---------0--0--0-----0---|
--------------------------------------|

Sin city

Intro Riff
--------------------|
--------------------|
--------------------|
--------------------|
-------2-5-0-2------|
---3-5---------0----|

-------2-------------|
-------3-------------|
-----4-2-2-----------|
---2-4-0-2-----------|x4
---2-2---0-----------|
---0-----------------|

Riff A
-------------2--------|
-------------3--------|
-----------4-2-2------|
---------2-4-0-2------|x4
---------2-2---0------|
---0-3-0-0------------|

Riff B
---2-2-2-2-2-2-2-2-2--|
---3-3-3-3-3-3-3-3-3--|
---2-2-2-2-2-2-2-2-2--|
---0-0-0-0-0-0-0-0-0--|
----------------------|

Play Riff A x8
Riff C
----------------------|
----------------------|
---2-2-2-2-2-2-2-2-2--|
---2-2-2-2-2-2-2-2-2--|
---0-0-0-0-0-0-0-0-0--|
----------------------|

Play Riff C


*

«  Сентябрь 2017  »
ПнВтСрЧтПтСбВс
    123
45678910
11121314151617
18192021222324
252627282930

*

ПАРТНЕРЫ:


Fan Site Geordie 2008 - 2017