GEORDIE - Playing With Girls


Playing With Girls Тип: табулатура


Playing With Girls
AC/DC


g1 g2
E-------| |-----------------------|
B-------| |-----------------------|
G-------| |-----------------------|repeat this over every 6th bar g2 plays E
D---2---| |-----------------------|
A---2---| |--5^2--5^2--5^2--5^2---|
E---0---| |-----0----0----0----0--|

G1
E------------------------|
B------------------------|
G------------------------|repeat
D------------------------|
A------------------------|
E--7^0-5^0-3^0-5^0-3^0---|
G2
|------------------------|
|------------------------|
|------------------------|
|--9---7---5---7---5-----|
|--9---7---5---7---5-----|
|--7^0-5^0-3^0-5^0-3^0-0-|

g1
|-----------------------|
|-----------------------|repeat
|-----------------------|
|-----------------------|
|--7-0-5-0-3-0-5-0-3-0--|
|-----------------------| back to above
g2
|------------------------|
|------------------------|
|--9---7---5---7---5-----|
|--9---7---5---7---5-----|
|--7^0-5^0-3^0-5^0-3^0-0-|
|------------------------|

---3-------3-----3-3-3-|
---3-------3-----3-3-3-|
---0-------0-----0-0-0-|
---0-------0-----------|
-----------------------|
---3-------3-----3-3-3-|

E---5--3--1--3--1--0-------------------|
B---5--3--1--3--1--0--3--2--1--0--0--0-|
G--------------------------------------|
D--------------------------------------|
A--------------------------------------|
E--------------------------------------|

E---3-3-3-3-3-3-3-3-3-3-3-3-3-3-3-3-3---|
B---3-3-3-3-3-3-3-3-3-3-3-3-3-3-3-3-3---|
G---0-----------0-------------0---------|
D---0-----------0-------------0---------|
A---2-----------2-----------------------|
E---3-----------3-------------3---------|

CHORUS
E--3--------------|---------------------------|
B--3---------3----|---------------------------|
G--0---------2----|---------------------------|
D--0---------0----|---------------------------|
A-----------------|---0-2-3-5-5--5-3-2-2------|
E--3--------------|----------------------3--0-|


*

«  Сентябрь 2017  »
ПнВтСрЧтПтСбВс
    123
45678910
11121314151617
18192021222324
252627282930

*

ПАРТНЕРЫ:


Fan Site Geordie 2008 - 2017