GEORDIE - On The Rocks


On The Rocks Тип: табулатура


ac/dc whiskey on the rocks
tab by steven warren



Gtr. 1 Highlick

e|------7--------7---||------7--------7---||
b|0--7-----0--7-----0||0--7-----0--7-----0||
g|-------------------||-------------------||
D|-------------------||-------------------||
A|-------------------||-------------------||
E|-------------------||-------------------||


Gtr. 2 (Chorus as Intro)

B Gsus F# E E Gsus F# E
e||-------3----------||-------3-----------||
b||-------3----------||-------3-----------||
g||------------------||1------------------||
D||4------------2----||2------------2-----||
A||2------2-----2----||2------2-----2-----||
E||-------3--2--0----||0------3--2--0-----||


Bridge lick

e|-------------------||
b|-------------------||
g|-------------------||
D|-------------------||
A|2--1--0------------||
E|---------3--2--1--0||


Verse

B D A E B D A E
e|---2---------------||---2---------------||
b|---3---------------||---3---------------||
g|---2---------------||---2---------------||
D|4-----2------------||4-----2------------||
A|2-----0------2-----||2-----0--2---------||
E|-------------0-----||---------0---------||


Pre-Chorus

B A D E B A E
e|---------2---------||-------------------||
b|---------3---------||-------------------||
g|---------2---------||-------------------||
D|4--2---------------||4--2---------------||
A|2--0--------2------||2--0-----2---------||
E|------------0------||---------0---------||


|Bridge lick|


Chorus

Gtr. 1
e|------7--------7---||------7--------7---||
b|0--7-----0--7-----0||0--7-----0--7-----0||
g|-------------------||-------------------||
D|-------------------||-------------------||
A|-------------------||-------------------||
E|-------------------||-------------------||


Gtr. 2

B Gsus F# E E Gsus F# E
e||-------3----------||-------3-----------||
b||-------3----------||-------3-----------||
g||------------------||-------------------||
D||4------------2----||2------------2-----||
A||2------2-----2----||2------2-----2-----||
E||-------3--2--0----||0------3--2--0-----||


|Verse|


|Pre-Chorus|


|Bridge lick|


|Chorus|


Middle 8 riff (with Solo)

B D E A B D E E A
e|------2-------------||---2---------------||
b|------3-------------||---3---------------||
g|------2-------------||---2---------------||
D|4-----------2-------||4------------2-----|| X8
A|2--------2--0-------||2------2--2--0-----||
E|---------0----------||-------0--0--------||


Xtended Bridge lick
e|--------------------------||
b|--------------------------||
g|--------------------------||
D|--------------------------||
A|----------2--1--0---------||
E|0-0-0-0---------3--2--1--0||


|Chorus| X2


|Middle 8 as Outro|


*

«  Январь 2018  »
ПнВтСрЧтПтСбВс
1234567
891011121314
15161718192021
22232425262728
293031

*

ПАРТНЕРЫ:


Fan Site Geordie 2008 - 2018