GEORDIE - Noise Pollution (solo)


Noise Pollution (solo) Тип: табулатура


Here's the solo,hope you like it.Written by Angus Young/Malcolm Young/Brian Johnson


b r h h h
-----------------------------------------------------------------------------|
----------------2-3---2-2-------5------/8--8--8----------9-9\-------9-9\-x-x-|
-2(4)2--x--4----3-4---2-2--/6-------6--/9--9--9--9-9--9----9\-------9-9\-x-x-|
--------x--------------------------------------------------9\-/11-9---9\-x-x-|
--------x--------------------------------------------------------------------|
--------x--------------------------------------------------------------------|

----------------------------------------------------------------------------|
--------------12-----------------------------15---------------15------------|
---14(16)--------12---12-----12\-----14(16)-----(16)-14-12-14---------------|
-------------------------14--12\----------------------------------14-12-----|
----------------------------------------------------------------------------|
----------------------------------------------------------------------------|
b
-12-12-15\--------------------15-15-14-14-14-12-----------------------------|
-12-12-14\-----15--15------15-15-15-15-15-15-12-15------15---15--15---------|
---------------14-(15)-----16-16-16-16-16-16----15(16)-(16)-(16)(16)14-12---|
----------------------------------------------------------------------------|
----------------------------------------------------------------------------|
----------------------------------------------------------------------------|
h
-----------------------------------------------------------------------------|
-15-15--------15------15-15-------------15---15---------------------17-------|
-14-12--------14(16)-(16)14(16)---14-12-14---12----------------x----------18-|
-------14-12-------------------------------14-----14-14----------------------|
-----------------------------------------------------------------------------|
-----------------------------------------------------------------------------|

--------------------------------------------19-------------------------------|
-17---17--\------19--------------17--19(21)-----(21)-19-17-19----17-----x-20-|
--------------18(20)--18--16--18------------------------------18----18--x-19-|
-----------------------------------------------------------------------------|
-----------------------------------------------------------------------------|
-----------------------------------------------------------------------------|
h
----------------------------------------------------------------------------|
------17---17----------------22(24)------------(24)--(24)-(24)-(24)-(24)----|
---------------------------------------------22(23)-------------------------|
----------------------------------------------------------------------------|
----------------------------------------------------------------------------|
----------------------------------------------------------------------------|
h
----------------------------------------------------------------------------|
----(24)-(24)-(24)-(24)-(24)-(24)-(24)-(24)-(24)-(24)-(24)-(24)\------------|
----------------------------------------------------------------------------|
----------------------------------------------------------------------------|
----------------------------------------------------------------------------|
----------------------------------------------------------------------------|


*

«  Январь 2018  »
ПнВтСрЧтПтСбВс
1234567
891011121314
15161718192021
22232425262728
293031

*

ПАРТНЕРЫ:


Fan Site Geordie 2008 - 2018