GEORDIE - Moneytalks (solo)


Moneytalks (solo) Тип: табулатура


Guitar Solo

a +Q E a E E E E a +E +Q E a S S E a +Q.
|-6b7==(6)r--3----------3-3-3---6b7==(6)-|-(6)r--3--------------6b7==(6)-------|
|-5b6==(5)r--3-------3--3-3-3---5b6==(5)-|-(5)r--3-------3------5b6==(5)-------|
|--------------5pb7r(5)------------------|---------5pb7r(5)--------------------|
|----------------------------------------|-------------------------------------|
|----------------------------------------|-------------------------------------|
|----------------------------------------|-------------------------------------|



~~~
+Q E a +E a +S +S S S E E +Q S S E +Q S S S S
|-(6)r--3----------------------------------|------------------------0----|
|-(5)r--3-5b6==(5)r-5b6==(5)r(5)p3---5---3-|-(3)------------------3------|
|---------5b6==(5)r-5b6==(5)r(5)p3---5---3-|-(3)--------------3h5--------|
|----------------------------------5-------|------5p3-5-(5)--------------|
|------------------------------------------|-----------------------------|
|------------------------------------------|-----------------------------|



S S S S E E a +Q. S S a +S +S S S E E +Q. E
|-----------------------------3---|-----------------------------------|
|-6p3---3---------------------3---|------------------5-3-(3)----------|
|-----5---3---5b7==(5)r-----------|-5b7==(5)r(5)p3---5-3-(3)s======12-|
|-----------5---------------------|----------------5------------------|
|---------------------------------|-----------------------------------|
|---------------------------------|-----------------------------------|



Q a +Q +E E E E E E E E S S E S S E
|--------------------------------------------|-----------------------------------------------|
|--------------------------15--15--------15--|-15------15--15------15---15-------------------|
|-12---14b15==(14)---(14)-(14)r14b15====(14)r|=14b15==(14)r14b16==(14)-(14)r14p12-------14---|
|--------------------------------------------|------------------------------------12h14------|
|--------------------------------------------|-----------------------------------------------|
|--------------------------------------------|-----------------------------------------------|


w/Rhy Fig 3
Q e E E E E E E E E E +Q E a E
|---------------------------|----------------------------------------|
|------15-------------------|------------------------------------15--|
|-15---16-12-12-----12---12-|------12-12-12-(12)\---12---14b15==(14)-|
|---------------/14---------|-/17------------------------------------|
|---------------------------|----------------------------------------|
|---------------------------|----------------------------------------|



~~~~~~~~~
+Q a Q a Q a E E +Q S S E +E a E E E
|-----------------------------------------------------|----------------------------------|
|-(15)-----------15-------------15-------------15-----|----------------------------------|
|-(14)r--14b15==(14)r--14b15==(14)r--14b15==(14)r--12-|-(12)-----------------------------|
|-----------------------------------------------------|-------10h12p10-(10)\-----5---5---|
|-----------------------------------------------------|----------------------5s7---------|
|-----------------------------------------------------|----------------------------------|


w/Rhy Fig 4
~~
E E E E +E E Q Q E E +E +E E a E
|-----------------------|----------------------------------|
|---------3-(3)---------|-3---5-3-(3)-(3)\-------------15--|
|---------3-(3)---------|-3---5-3-(3)-(3)\-----14b15==(14)-|
|-----5-5-------3-5-----|----------------------------------|
|-/7--------------------|----------------------------------|
|-----------------------|----------------------------------|


+E. S a E. S a E. S a E. S
|--------------------------------------------------------------|
|-(15)--x---------15-----x---------15-----x---------15-------x-|
|-(14)r-x-14b15==(14)r---x-14b15==(14)r---x-14b15==(14)r-----x-|
|--------------------------------------------------------------|
|--------------------------------------------------------------|
|--------------------------------------------------------------|


|------------3------------|
a +Q a +Q a +Q a +Q. +E
|-18b20==(18)r-18b20==(18)r-18b20==(18)r---18b20==(18)-------(18)r\-||
|-------------------------------------------------------------------||
|-------------------------------------------------------------------||
|-------------------------------------------------------------------||
|-------------------------------------------------------------------||
|-------------------------------------------------------------------||

лаборатория 8 , mind training8.

ремонт стиральных машин подольск, brandt lg .


*

«  Сентябрь 2017  »
ПнВтСрЧтПтСбВс
    123
45678910
11121314151617
18192021222324
252627282930

*

ПАРТНЕРЫ:


Fan Site Geordie 2008 - 2017