GEORDIE - Made Who (album)


Made Who (album) Тип: табулатура


Who Made Who Album

Who Made Who

Riff A(Malcolm)
|-------- -------- -------- |
|-------- -------- -------- |
|--5-5--- --2-2--- -------- |
|--5-5---x8--2-2---x2--5-5---x4|
|--3-3--- --0-0--- --5-5--- |
|-------- -------- --3-3--- |

Riff B(Angus) Play This until "Last Year"....
--10-------| -------------------|
--10-------| -------------------|
--12-14\---| -------------------|
-----------| -0h4p0h5p0h7p0h5---|
-----------| -------------------|
-----------| -------------------|

Riff C
Play Until "Feel it"....
------------------|
------------------|
------------------|
------------------|
--6p0h7p0h9p0h7---|
------------------|

Riff D Play Until "It can't do"....
------------------|
------------------|
------------------|
------------------|
--4p0h5p0h7p0h5---|
------------------|

Play Riff B until Chorus

------------------------|
------3----------3------|
----2----2-----2---2----|
--4--------4-5----------|
------------------------|
------------------------|

--------------------------------|
--2--3---3--2---3-3---2---2-2---|
--2--2---2--2---2-2---2---2-2---|
--2--5---4--2---5-4---2---2-2---|
--0--0---0--0---0-0---0---0-0---|
--------------------------------|

Guitar Solo
Solo:
--t14p7h10--t14p7h10----------t14p7h10----------t14p7h10---------t14p7h10-|
---------------------t12p10p7----------t12p10p7----------t12p10p7---------|
--------------------------------------------------------------------------|
--------------------------------------------------------------------------|
--------------------------------------------------------------------------|
--------------------------------------------------------------------------|

---------t14p7h10-----------t14p7h10----------t14p7h10----------t14p7h10-|
t12p10p7----------t12p10p7-----------t12p10p7----------t12p10p7----------|
-------------------------------------------------------------------------|
-------------------------------------------------------------------------|
-------------------------------------------------------------------------|
-------------------------------------------------------------------------|

-----------------------------------------------------------------------------|
t12p10p7---------------8h5---8h5---8h5---8h5---------------------------------|
-------------------6-------6-----6-----6-----6h7vvvvvvvv-7--7--7h6--7--7-----|ls9v
-----------------------------------------------------------------------------|
-----------------------------------------------------------------------------|
-----------------------------------------------------------------------------|

-------------------------t10p6p3-t10p6p3-t10p6p3-t10p6p3-t12p6p3-t12p6p3-|
-------------------------------------------------------------------------|
vvvvvvvv-----\\\---------------------------------------------------------|
-------------------------------------------------------------------------|
------------------(10)\\-------------------------------------------------|
-------------------------------------------------------------------------|

t12p6p3-t13p6p3-t13p6p3-t13p6p3-t13p6p3-t13p6p3-t13p6p3-t13p6p3-t13p6p3-|
------------------------------------------------------------------------|
------------------------------------------------------------------------|
------------------------------------------------------------------------|
------------------------------------------------------------------------|
------------------------------------------------------------------------|

t13p6p3-t13p6p3---|
------------------|
------------------|
------------------|
------------------|
------------------|


You Shook Me All Night Long

e-----------------------------------------------------------------2------|
b-8----10--8--8----8-7-----3----------------8---10-8-8---8-7------3-------|
g-7----7---7--7--7-----7-0-2---2-2-----2-2--7---7--7-7-7-----7-0--2-------|
d------------------------------3-0-3h4-3-0------------------------0-------|
a-------------------------------------------------------------------------|
e-------------------------------------------------------------------------|

VERSE Ds=D suspended
Very rythmic riff,get good timing. Fill between Verse and chorus.
e---------------2-2--------2---2-| |-2--2--2-2-2-3--2--3--2-|
b-3---3-3-3-3-3-3-3----3-3-3-3-3-| |-3--3--3-3-3-3--3--3--3-|
g-0---0-0-0-0-0-2-2----0-0-2-0-2-| |-2--2--2-2-2-2--2--2--2-|
d-0-------0---0-0-0----0-0-0-0-0-| |-0--0--0-0-0-0--0--0--0-|
a-----3-3---3--------------------| |------------------------|
e-3-------3---3--------3-3---3---| |------------------------|
G C C G C G D D G G D G D D D D D D Ds D Ds D

CHORUS
e-------------------------2----------------------|
b---3---------3-----3-----3----------3-------3---|
g---0-------0-----0---0---2--------0---0---0---0-|
d---0-------------------0-0----------------------|
a-----0-2-3-----2------------0-2-3-------2-------|
e-3-3--------------------------------------------|
G D

SOLO
e-----3----------------------------------------------------------------|
b-------3-6-----------------------------3-------------6-6-----8-8---8--|
g-5b7-------5b6r5-3---------------------3-------3---7-----7/9-----9----|
d-------------------5---5---5-3-----------5---5------------------------|
a---------------------5---------5-3---------5--------------------------|
e-----------------------------------6-3--------------------------------|

-------10-------------------------------------------15----------------|
-10b12----(12)r10-8--11b13-10b12-8---8-----19b20-------15-18----------|
-----------------------------------9----9--------------------(19)r17--|
----------------------------------------------------------------------|
----------------------------------------------------------------------|
----------------------------------------------------------------------|

--------------------------------------------------------------18b20---|
-------17-15--------18-------18---------------17-15-17-15--15---------|
-15----17-15--17b19----17b19----(19)r17-15----17-15-17-15-------------|
----17-------------------------------------17-------------------------|
----------------------------------------------------------------------|
----------------------------------------------------------------------|

-17b19--(19)r17-15-17----15-------15------------------------15----15--|
----------------------17----18b20----18------------------17----17-----|
----------------------------------------(19)r17-15-17b19--------------|
----------------------------------------------------------------------|
----------------------------------------------------------------------|
----------------------------------------------------------------------|

-15-(19)r17-15-|
---------------|
---------------|
---------------|
---------------|
---------------|


D.T.

Main Riff
------------------------------------|
----------------4---3---------------|
--5-5-3-5\----3-3---3----5-2--------|
--5-5-3-5\--5----------------3------|
--3-3-3-3\--------------------------|
------------------------------------|

Riff B
-------------|
-------------|
--5-5-3-5----|
--5-5-3-5\---|x4
--3-3-3-3\---|
-------------|

Riff C
------------------------------------|
------------------------------------|
------------------------------------|
------------------------------------|
----1-3---1-----------1-------------|
--3---------3-1---1-3-----1-3-1-----|

Riff B x2

Guitar solo
-------------------------------------13(15)-11------------|
-11(13)-11(13)-11(13)-11----------------------13-18(20)---|
------------------------10(12)-10(12)---------------------|
----------------------------------------------------------|
----------------------------------------------------------|
----------------------------------------------------------|

---------------------------------------------15(18)-15-13-|
--18(20)-18(20)-13-15(16)-13-13-13------13-13-------------|
----------------------------------15(17)------------------|
----------------------------------------------------------|
----------------------------------------------------------|
----------------------------------------------------------|

-----------15--15--15--15--15-18-15------------------------|
--16-18(20)--18--18--18--18--------16p13---------------4-3-|
-------------------------------------------5-5-3-5-----3-3-|
-------------------------------------------5-5-3-5-3-3-5-3-|
-----------------------------------------------------------|
-----------------------------------------------------------|

------------|
------------|
--5-2-------|
------3-----|
------------|
------------|

-----------|
--11(13)---|
-----------|
-----------|Repeat and fade
-----------|
-----------|


Sink the pink


riff A
------------------------3------------|
------------------------3------------|
---3--------------------0------------|
---3------3--3----------0------------|
---1--/5-----3------3----------------|
-------------1--/5------3------------|


angus riff G chord by malcom here|
-7-8-10-10-8-7--------------------------------------------------------------|
----------------10-10-8-10-6-6-6-6-6-6-8-10-8-8-8-8-8-8-8-8-8-8-8-8-8-8-----|
----------------------------------------------------------------------------|
----------------------------------------------------------------------------| x2
----------------------------------------------------------------------------|
----------------------------------------------------------------------------|

verse riff B
-----------------------------------------|
--1-1-----------1-1-1--------------------|
--0-0-0-0-0-0-0-0-0-0--------------------|
-----------------------------------------| x8
--3-3-2-2-3-3-2-3-3-3--------------------|
-----------------------------------------|


then play this
-------------------|
--1-1-1------------|
--0-0-0------------|
-------------------| x6
--3-3-2------------|
-------------------|


then this
---------------------------------|
---------------------------------|
--7-7\5--5/7--7\3----------------|
--7-7\5--5/7--7\3----------------|
--5-5\3--3/5--5\1----------------|
---------------------------------|

chorus

Play riff A

play riff b x4


now this
riff C
-------------------|
--1-1--1-1---------|
--0-0--0-0---------|
-------------------| x4
--3-3--2-2---------|
-------------------|

play riff B

play riff c

now this
---6-3----------------------------|
-------3-6-5-3--------------------|
-----------5-3--------------------|
---------------5------------------|
----------------------------------|
----------------------------------|


repeat verse and chorus

for solo play angus riff x2

then this
--------------------------------------------------------------------------------|
-5-3(4)-5-3(4)-8(10)-5-3(4)-5-3(4)------5-3(4)-5-3(4)-8(10)-5-3(4)-5-3(4)-8(10--|
-5-3(4)-5-3(4)-------5-3(4)-5-3(4)-5(7)-5-3(4)-5-3(4)-------5-3(4)-5-3(4)-------|
--------------------------------------------------------------------------------|
--------------------------------------------------------------------------------|
--------------------------------------------------------------------------------|


8(10)-8---11(13)-13p11----------10---------------------------------------------|
-------11--------------11-13(15)---15r13-11---11(13)---11-10-9-13-11-13(15)----|
--------------------------------------------12-------12------------------------|
-------------------------------------------------------------------------------|
-------------------------------------------------------------------------------|
-------------------------------------------------------------------------------|

Ride On

E--0--1--|--0--1--|--0--1--|--0--1----|
B--1--1--|--1--1--|--1--1--|--1--1-----|
G--0--2--|--0--2--|--0--2--|--0--2-----|
D--2--3--|--2--3--|--2--3--|--2--3-----|
A--3--3--|--3--3--|--3--3--|--3--3-----|
E--------|--------|--------|-----------|

Verse: Play this pattern 2 times.

E--0--1--|--0--1--|--1-----|--1-----|
B--1--1--|--1--1--|--1--3--|--1--3--|
G--0--2--|--0--2--|--2--3--|--2--3--|
D--2--3--|--2--3--|--3--3--|--3--3--|
A--3--3--|--3--3--|--3--1--|--3--1--|
E--------|--------|--------|--------|

E--------|-----1--|--0--1--|--0--1--|
B-----5--|--3--1--|--1--1--|--1--1--|
G--4--5--|--3--2--|--0--2--|--0--2--|
D--5--5--|--3--3--|--2--3--|--2--3--|
A--5--3--|--1--3--|--3--3--|--3--3--|
E--3-----|--------|--------|--------|

Pre-Chorus:

E----------|----------|----------|----------|
B----------|----------|----------|----------|
G----------|----------|----------|----------|
D-------3~-|-------3~-|-------4~-|-------4~-|
A----------|----------|----------|----------|
E-1-1-1----|-1-1-1----|-2-2-2----|-2-2-2----|

E---------------------------------|
B---------------------------------|
G---------------------------------|
D--5-5-5--5-5-5--5-5-5--5-5-5--5--|
A--5-5-5--5-5-5--5-5-5--5-5-5--5--|
E--3-3-3--3-3-3--3-3-3--3-3-3--3--|

Chorus:

E--1--0--|--0--3--|--1--0--|-----1--|
B--1--1--|--1--3--|--1--1--|--3--1--|
G--2--0--|--0--0--|--2--0--|--3--2--|
D--3--2--|--2--0--|--3--2--|--3--3--|
A--3--3--|--3--2--|--3--3--|--1--3--|
E--1-----|-----3--|--1-----|-----1--|

E--1--0--|--0--3--|--------------------------|
B--1--1--|--1--3--|--------------------------|
G--2--0--|--0--0--|--------------------------|
D--3--2--|--2--0--|--5--3-3-3--3-3-3--3-3-3--|
A--3--3--|--3--2--|--5--3-3-3--3-3-3--3-3-3--|
E--1-----|-----3--|--3--1-1-1--1-1-1--1-1-1--|

E-------------------------------------|
B-------------------------------------|
G-------------------------------------|
D--3-3-3--3-3-3--3-3-3--3-3-3--3-3-3--|
A--3-3-3--3-3-3--3-3-3--3-3-3--3-3-3--|
E--1-1-1--1-1-1--1-1-1--1-1-1--1-1-1--|

Small Solo:

Guitar 1

E--0--1--|--0--1--|--0--1--|--0--1--|
B--1--1--|--1--1--|--1--1--|--1--1--|
G--0--2--|--0--2--|--0--2--|--0--2--|
D--2--3--|--2--3--|--2--3--|--2--3--|
A--3--3--|--3--3--|--3--3--|--3--3--|
E--------|--------|--------|--------|

Guitar 2

E-13b-------|------------15-|----------------|
B-----16-13-|-16b-16-16b----|-16-------------|
G-----------|---------------|----15-17-15-17-|
D-----------|---------------|----------------|
A-----------|---------------|----------------|
E-----------|---------------|----------------|

E-------|----|
B-------|----|
G-------|----|
D-17\13-|-10-|
A-------|----|
E-------|----|


Now repeat the verse, pre-chorus & chorus,
before the Main Solo begins.


Main solo:

Guitar 1

E--0--1--|--0--1--|--0--1--|--0--1--|
B--1--1--|--1--1--|--1--1--|--1--1--|
G--0--2--|--0--2--|--0--2--|--0--2--|
D--2--3--|--2--3--|--2--3--|--2--3--|
A--3--3--|--3--3--|--3--3--|--3--3--|
E--------|--------|--------|--------|

E--1-----|--1-----|--0--1--|--0--1--|
B--1--3--|--1--3--|--1--1--|--1--1--|
G--2--3--|--2--3--|--0--2--|--0--2--|
D--3--3--|--3--3--|--2--3--|--2--3--|
A--3--1--|--3--1--|--3--3--|--3--3--|
E--------|--------|--------|--------|

E--0--1--|--0--1--|--0--1--|--0--1--|
B--1--1--|--1--1--|--1--1--|--1--1--|
G--0--2--|--0--2--|--0--2--|--0--2--|
D--2--3--|--2--3--|--2--3--|--2--3--|
A--3--3--|--3--3--|--3--3--|--3--3--|
E--------|--------|--------|--------|

E--1-----|--1-----|--0--1--|--0--1--|
B--1--3--|--1--3--|--1--1--|--1--1--|
G--2--3--|--2--3--|--0--2--|--0--2--|
D--3--3--|--3--3--|--2--3--|--2--3--|
A--3--1--|--3--1--|--3--3--|--3--3--|
E--------|--------|--------|--------|

E----------|----------|----------|----------|
B----------|----------|----------|----------|
G----------|----------|----------|----------|
D-------3~-|-------3~-|-------4~-|-------4~-|
A----------|----------|----------|----------|
E-1-1-1----|-1-1-1----|-2-2-2----|-2-2-2----|

E---------------------------------|
B---------------------------------|
G---------------------------------|
D--5-5-5--5-5-5--5-5-5--5-5-5--5--|
A--5-5-5--5-5-5--5-5-5--5-5-5--5--|
E--3-3-3--3-3-3--3-3-3--3-3-3--3--|

Guitar 2

E-13-----------|-----------|-8---------|----------|----------|
B----16-13-13~-|----13-16\-|---11-8-11-|----------|----------|
G--------------|-14--------|-----------|-10-8-----|-12-10-8~-|
D--------------|-----------|-----------|------10~-|----------|
A--------------|-----------|-----------|----------|----------|
E--------------|-----------|-----------|----------|----------|

E---------------------------|---------------------|-------------8-10-11~-|
B------13--11-13--11-13--11-|-13b-11p8------------|---------8-11---------|
G-10-12--12-----12-----12---|---------11p10p8--8~-|-----8-10-------------|
D---------------------------|----------------10---|-8-10-----------------|
A---------------------------|---------------------|----------------------|
E---------------------------|---------------------|----------------------|

E-11-10-11-8~-|---8-8-8~-|-18-15-13-11--11-----|-11-11-11-11-11-11-------|
B-------------|-10-------|------------13--13~\-|------------------13-13~-|
G-------------|----------|---------------------|-------------------------|
D-------------|----------|---------------------|-------------------------|
A-------------|----------|---------------------|-------------------------|
E-------------|----------|---------------------|-------------------------|

E-11--11-13-14-15-15-18-15~-|-17-18-15-18p17p15--------------------------|
B---13----------------------|------------------18p15---------------------|
G---------------------------|-----------------------17p15-15-17-15~-17~\-|
D---------------------------|--------------------------------------------|
A---------------------------|--------------------------------------------|
E---------------------------|--------------------------------------------|

E---------------------|----------------|---8-----------------------------|
B---------------------|-8h11p8---------|-8--11p8-------------------------|
G-8-----8----8h10-----|-------10p8h10~-|--------10p8-8h10p8----8---------|
D--8-10--8h10----8h10-|----------------|--------------------10---10-10~\-|
A---------------------|----------------|---------------------------------|
E---------------------|----------------|---------------------------------|

E-----------8-10-11p10p8~-|----13-13~--------------------|--------|
B-------8-11--------------|----------13h16p13------------|-----18-|
G---8-10------------------|-/14--------------16p15p13----|---17---|
D-10----------------------|--------------------------15~-|-15-----|
A-------------------------|------------------------------|--------|
E-------------------------|------------------------------|--------|

E---------------------|-15-15-15~-|-15-------------------------------|
B-19-17-17-19-19-19~\-|-----------|---18p15--------18p17p15-18p17p15-|
G---------------------|-----------|--------18p17p15------------------|
D---------------------|-----------|----------------------------------|
A---------------------|-----------|----------------------------------|
E---------------------|-----------|----------------------------------|

E----------|--15-15~--|
B-18p17p15-|----------|
G----------|----------|
D----------|----------|
A----------|----------|
E----------|----------|

Chorus:


*

«  Ноябрь 2017  »
ПнВтСрЧтПтСбВс
  12345
6789101112
13141516171819
20212223242526
27282930

*

ПАРТНЕРЫ:


Fan Site Geordie 2008 - 2017