GEORDIE - Lotta Rosie (solo)


Lotta Rosie (solo) Тип: табулатура


Whole Lotta Rosie Live by Ac/Dc Album:
Solo Ac/Dc Live Collector's
tab by Voytazz Edition


That is the solo played by Angus on live show. It is similar to solo
from the Let There Be Rock Album. On your web site in ver3 of Whole Lotta
Rosie is the solo from If You Want Blood album ,which is completely
different. Here you find a REAL SOLO! So Let's ROCK!

|---------------------------------------------------------------------|
|---------------------------------------------------------------------|
|--------------------5-7-5b7r5---5-----------------------------5~-----|
|--7-7-7-7~--------7-----------7---7-7-7~-----------------------------|
|---------------------------------------------------------------------|
|---------------------------------------------------------------------|

|--------<---|---------------------5h7p5-----------------------------|
|--6h7h8-<---|--6b8----------------------8-7-5--5--------------------|
|-------- |--------<---|---------------------------------------7\--------------|
|--------<---|-------------------------------------------------------|
|--------<---|-------------------------------------------------------|


____x6______ then _______x6______ then...
|-----------|--------|----|---------------|---------------------------|
|-----------|--------|----|-----15p14p12--|---------------------------|
|-6p5p3-----|---6/---|----|---------------|-----14--14\---------------|
|-----------|--------|----|---------------|---------------------------|
|-----------|--------|----|---------------|---------------------------|
|-----------|--------|----|---------------|---------------------------|

|---------------------------------------------------------------------|
|---12b14r12--14b-14~~--------12b14r12--14-14b---------------------12-|
|---------------------------------------------------------------------|
|---------------------------------------------------------------------|
|---------------------------------------------------------------------|
|---------------------------------------------------------------------|

|---------------------------------------------------------------------|
|-14-12-----15-14-12----12--------------------------------------------|
|--------------------14-----15-14--12--------------------------14-14~~|
|-------------------------------------14-14\--------------------------|
|---------------------------------------------------------------------|
|---------------------------------------------------------------------|

__x2______x2_____x2____x2_____x2_
|------|------|------|------|----|-------------------------------------|
|------|------|------|------|----|--5b7r5-7-5--------------------------|
|-12p10|-11p9-|-10p8-|-9p7--|8b6-|-----------5b7r5---------------------|
|------|------|------|------|----|-----------------7-7~~---------------|
|------|------|------|------|----|-------------------------------------|
|------|------|------|------|----|-------------------------------------|

|---------------------|-------------------|
|---------------------|-------------------|
|------5---7---5------|-----5---7---5-----|
|----7---7---7---7~---|-----5---7---5-----| x6
|---------------------|---0-3-0-5-0-3-0--/|
|---------------------|-------------------|

|---------------------|
|---------------------|
|------5---7---5------|
|----7---7---7---7~---|x3 (2 last times Palm muting)
|---------------------|
|---------------------|

|-------------------|
|-------------------|
|-----5---7---5-----|
|-----5---7---5-----|
|---0-3-0-5-0-3-0--/|
|-------------------|




|-------------------------------------------------------------|
|-------------------------------------------------------5b----|
|-------------------------------------------------------7b----|
|--6*-5*-4*-3*-2*-1*-0*---------------------------------------|
|--0--0--0--0--0--0--0---3*-2*-1*-0*--------------------------|
|------------------------0--0--0--0---------------------------|
notes with "*" you can bend, pick...itp. Your choice!


__x2________x2_______x2___ repeat long
|-----------------------------------------------------------------------|
|--------------------------------15p14p12-----------20-----15-17-15-17\-|
|-6p5p3----8p7p5---10p9p7--14-14---------------/-22----22~~-------------|
|-----------------------------------------------------------------------|
|-----------------------------------------------------------------------|
|-----------------------------------------------------------------------|

I will post the outro!

AC/DC Rocks


*

«  Январь 2018  »
ПнВтСрЧтПтСбВс
1234567
891011121314
15161718192021
22232425262728
293031

*

ПАРТНЕРЫ:


Fan Site Geordie 2008 - 2018