GEORDIE - Jailbreak (solo)


Jailbreak (solo) Тип: табулатура


Tuning: Standard

--17-17~~~-17-15------------15-15------------------|
-----------------17-15b(17)-17-17------------------|
-----------------------------------17~~~~~~~-14/---|
---------------------------------------------------|
---------------------------------------------------|
---------------------------------------------------|

--------------------------|
--------------------------|
--------------------------|
--------------------------|
--------------------------|
--5-5-5b7~~~~~~~~~~~~~~~--|

--19-17-19-19~~~-19-17----------17-17-------------|
-----------------------19-17b19----19-------------|
--------------------------------------------------|
--------------------------------------------------|
--------------------------------------------------|
---------------------------------------0----------|(let it ring)

Notation used:
~-vibrato
b-bend
/-slide
(0)-ghost note
 

 

Схема работы роторный испаритель лабораторный.


*

«  Сентябрь 2018  »
ПнВтСрЧтПтСбВс
     12
3456789
10111213141516
17181920212223
24252627282930

*

ПАРТНЕРЫ:


Fan Site Geordie 2008 - 2018