GEORDIE - Hold On Me (solo)


Hold On Me (solo) Тип: табулатура


Standard Tuning

E E E E Q Q
e|------------------------|
B|------------------------|
G|--2--2--2--2------------|
D|--0--0--0--0--3----5----|
A|--------------1----3----|
E|------------------------|


H. E E E E Q E E Q
---------------------------|------------------------------------|
---------------------------|------------------------------------|
--12b---------------12pbr--|---L--10--12br----12g10------10b----|
---------------------------|-------------------------12---------|
---------------------------|------------------------------------|
---------------------------|------------------------------------|


Q E Q E E E Q. Q E E E
-----------------------------|-------------------------------|
-----------------------------|---------------------10--13br--|
-----------------------------|----------------12b------------|
--------10~------------------|-------------------------------|
--12--------------10-----10--|--12~--------------------------|
-----------------------------|-------------------------------|


E. S Q E E E E S S E Q Q E E
-----------------------------------|---------------------------------|
--L---10---------------------------|----------------------------13b--|
---------12b----12pb--12b--10--12--|--12p-10-----10S----x------------|
-----------------------------------|---------12----------------------|
-----------------------------------|---------------------------------|
-----------------------------------|---------------------------------|


E E E Q. E E S S E E Q. E E
-------------13b------13br--10--|--13p-10-----10--------------13b--|
--L--13--10---------------------|---------13------13b--------------|
--------------------------------|----------------------------------|
--------------------------------|----------------------------------|
--------------------------------|----------------------------------|
--------------------------------|----------------------------------|


E E E Q E E E E E E Q E E E
--L--13--10--13b----13--10-------|----------------------------------|
----------------------------13b--|---L--13--10--13b----13--10-------|
---------------------------------|-----------------------------12b--|
---------------------------------|----------------------------------|
---------------------------------|----------------------------------|
---------------------------------|----------------------------------|


E E E Q E E E E E Q E E E S S
--------------------------------|---------------------------------------|
--------------------------------|----------------------------10--13p-10-|
--L--12--10--12b----12--10--12--|--10pbr------10S----x--12b-------------|
--------------------------------|---------12----------------------------|
--------------------------------|---------------------------------------|
--------------------------------|---------------------------------------|


E E S S E E E E E E E E Q E E E
---------------------------------------|----------------------------13b--|
-------10--13p-10-----10--13--10--13b--|--L--13--10--13b----13--10-------|
--12b-------------12-------------------|---------------------------------|
---------------------------------------|---------------------------------|
---------------------------------------|---------------------------------|
---------------------------------------|---------------------------------|


Q E. S S E. E E W W
--L----13br---10-13p-10---10-------|-------------------|-------------------|
------------------------------13b--|--L----------------|-------------------|
-----------------------------------|-------------------|-------------------|
-----------------------------------|-------------------|-------------------|
-----------------------------------|-------------------|-------------------|
-----------------------------------|-------------------|-------------------|


W W W W
-------------------|-------------------|-------------------|-------------------|
-------------------|-------------------|-------------------|-------------------|
-------------------|-------------------|-------------------|-------------------|
-------------------|-------------------|-------------------|-------------------|
-------------------|-------------------|-------------------|-------------------|
-------------------|-------------------|-------------------|-------------------|


W W W
-------------------|-------------------|-------------------|
-------------------|-------------------|-------------------|
-------------------|-------------------|-------------------|
-------------------|-------------------|-------------------|
-------------------|-------------------|-------------------|
-------------------|-------------------|-------------------|


Q. Q E Q W E Q E H
----------------------------|-------------------|-----------------------------|
----------------------------|-------------------|------------10--13brb--------|
---------12pbr----10--------|-------------------|-----12b---------------------|
----------------------12----|-------------------|-----------------------------|
----------------------------|-------------------|-----------------------------|
----------------------------|-------------------|-----------------------------|


W E Q. S S E E E Q Q H
-------------------|-----13b------13p-10-----10-------|----------------------|
-------------------|---------------------13------13b--|---L------------------|
-------------------|----------------------------------|----------------------|
-------------------|----------------------------------|----------------------|
-------------------|----------------------------------|----------------------|
-------------------|----------------------------------|----------------------|


W W W W
-------------------|-------------------|-------------------|-------------------|
-------------------|-------------------|-------------------|-------------------|
-------------------|-------------------|-------------------|-------------------|
-------------------|-------------------|-------------------|-------------------|
-------------------|-------------------|-------------------|-------------------|
-------------------|-------------------|-------------------|-------------------|


H Q E E W Q H.
-----------------------------|--------------------|--------------------|
------------------------13b--|---L----------------|--L-----------------|
-----------12pbr----10-------|--------------------|--------------------|
-----------------------------|--------------------|--------------------|
-----------------------------|--------------------|--------------------|
-----------------------------|--------------------|--------------------|


W H Q E E W
-------------------|-----------------------------|--------------------|
-------------------|------------------------13b--|---L----------------|
-------------------|-----------12pbr----10-------|--------------------|
-------------------|-----------------------------|--------------------|
-------------------|-----------------------------|--------------------|
-------------------|-----------------------------|--------------------|


Q H. W H E E E E
--------------------|-------------------|-----------------------------|
--L-----------------|-------------------|------------------------13b--|
--------------------|-------------------|-----------12b--12--10-------|
--------------------|-------------------|-----------------------------|
--------------------|-------------------|-----------------------------|
--------------------|-------------------|-----------------------------|


W Q H. W
--------------------|--------------------|-------------------|
---L----------------|--L-----------------|-------------------|
--------------------|--------------------|-------------------|
--------------------|--------------------|-------------------|
--------------------|--------------------|-------------------|
--------------------|--------------------|-------------------|


W
-------------------||
-------------------||
-------------------||
-------------------||
-------------------||
-------------------||




Duration Legend
---------------
W - whole
H - half
Q - quarter
E - 8th
S - 16th
T - 32nd
X - 64th
. - note dotted
|-n-| - n-tuplets


Tablature Legend
----------------
L - tied note
x - dead note
g - grace note
(n) - ghost note
> - accentuded note
NH - natural harmonic
AH - artificial harmonic
TH - tapped harmonic
SH - semi harmonic
PH - pitch harmonic
h - hammer on
p - pull off
b - bend
br - bendRelease
pb - preBend
pbr - preBendRelease
brb - bendReleaseBend
\n/ - tremolo bar dip
\n - tremolo bar dive
-/n - tremolo bar Release up
/n\ - tremolo bar inverted dip
/n - tremolo bar return
-\n - tremolo bar Release down
S - shift slide
s - legato slide
/ - slide into from below or out of upwards
\ - slide into from above or out of downwards
~ - vibrato
W - wide vibrato
tr - trill
TP - tremolo picking
T - tapping
S - slap
P - pop
< - fade in
^ - brush up
v - brush down


*

«  Октябрь 2018  »
ПнВтСрЧтПтСбВс
1234567
891011121314
15161718192021
22232425262728
293031

*

ПАРТНЕРЫ:


Fan Site Geordie 2008 - 2018