GEORDIE - Hold Me Back


Hold Me Back Тип: табулатура


AC/DC - Hold Me Back
Submitted By: s g/f
EMail: b3a16@unb.ca
tabbed by Dave

Key

~~~ let the note ring out

Parts 1 & 2 are played with the thumb and first finger plucking the
two strings together

Part 1 End End
A B
|-------------------------------------------|----|----|-------------|
|--12-13-15-13-12-13-15-13-12-13-15-13-12---|-15-|----|-------------|
|--12-12-12-12-12-12-12-12-12-12-12-12-12-12|-12-|-12-|-------------|
|-------------------------------------------|----|-12-|-------------|
|-------------------------------------------|----|----|-------------|
|-------------------------------------------|----|----|-------------|

Play the first part with ending A then again with ending B

Part 2 End End
A B
|-------------------------------------------|----|----|-------------|
|---3--5--6--5--3--5--6--5--3--5--6--5--3---|----|----|-------------|
|---0--0--0--0--0--0--0--0--0--0--0--0--0---|-5--|-0--|-------------|
|-------------------------------------------|-5--|-0--|-------------|
|-------------------------------------------|----|----|-------------|
|-------------------------------------------|----|----|-------------|

Play the first part with ending A then again with ending B

The chorus is part 1 but with only ending A played over. The backing
is shown below it

Chorus - Part 3

|-------------------------------------------------------------------|
|--12-13-15-13-12-13-15-13-12-13-15-13-12----15---------------------|
|--12-12-12-12-12-12-12-12-12-12-12-12-12-12-12---------------------|
|-------------------------------------------------------------------|
|-------------------------------------------------------------------|
|-------------------------------------------------------------------|
| |
|---------------------------3~~~~~~~~~~-----------------------------|
|---------------------------3~~~~~~~~~~-----------------------------|
|---------------5~~~~~~~~~~-0~~~~~~~~~~-----------------------------|
|---3~~~~~~~~~~-5~~~~~~~~~~-0~~~~~~~~~~-----------------------------|
|---3~~~~~~~~~~-3~~~~~~~~~~-----------------------------------------|
|---1~~~~~~~~~~-------------3~~~~~~~~~~-----------------------------|

The song plays like this

1A 1B 1A 1B 2A 2B 2A 2B 2A 2B 2A 2B 3 3 3 3 2A ...........
 

шинглас цена за м2


*

«  Декабрь 2017  »
ПнВтСрЧтПтСбВс
    123
45678910
11121314151617
18192021222324
25262728293031

*

ПАРТНЕРЫ:


Fan Site Geordie 2008 - 2017