GEORDIE - Highway To Hell (album)


Highway To Hell (album) Тип: табулатура


Highway To Hell Album

Highway To Hell


Main Riff (Angus only)
----------------------------------------------|
------------3-3-3----3-3-3----3-3-3----3------|
---2-2-2----2-2-0----2-2-0----2-2-0----2--2-2-|
---2-2-2----0-0-0----0-0-0----0-0-0----0--2-2-|Play through verse
---0-0-0----------------------------------0-0-|
--------------2-3------2-3------2-3-----------|

---------------------------------------|
---------------------------------------|
---9-9-9-9-9-9-9-9-9-9-9-9-9-----------|
---9-9-9-9-9-9-9-9-9-9-9-9-9-----------|
---7-7-7-7-7-7-7-7-7-7-7-7-7-----------|
---0-0-0-0-0-0-0-0-0-0-0-0-0-----------|

Chorus
------------2-2-2-2--3--2--------|
------------3-3-3-3--3--3--------|
---2-2-2-2--2-2-2-2--0--2--------|
---2-2-2-2--0-0-0-0--0--0--------|
---0-0-0-0-----------------------|
---------------------3--2--------|

Repeat Verse and Chorus

Pre-Solo
---2-3-2----2-3-2-3-2-3----------|
---3-3-3----3-3-3-3-3-3----------|
---2-2-2----2-2-2-2-2-2----------|
---0-0-0----0-0-0-0-0-0----------|
---------------------------------|
---------------------------------|

Solo
--------5----------------------------------------------------|
-------5------5-5-----5-5----5-5-----5-5-7(8)(7)-------------|
---7(9)---7(9)----7(9)---7(9)----7(9)----7(8)(7)---5----7-5--|
----------------------------------------------------7-x------|
-------------------------------------------------------------|
-------------------------------------------------------------|

-----------------------5-------------5-------------------5-----------|
------------------------5-------------5-------------------5----------|
----------------2-4(5)----4(5)-2-0-----4(5)-4(5)--2-0-/4---4(5)--/18-|
---x-4(6)--2-----------------------0---------------------------------|
-------------3-0-----------------------------------------------------|
---------------------------------------------------------------------|

Ad-Lib Solo
---14(16)-12-------------12-12--------12--------------15-------------|
------------13-----------13-13--------13--15(17)-15-15--15-15-15(17)-|
--------------14-14\-----------14-13---------------------------------|
---------------------------------------------------------------------|
---------------------------------------------------------------------|
---------------------------------------------------------------------|
Pick Slide
------------------------------------------------------12-13-12-13-12~-|
-------------------13~~---13----13\----13~~-13---/18------------------|
-----------------------------14---------------14----------------------|
----------------------------------------------------------------------|
----------------------------------------------------------------------|
---x\x\x\x\-----------------------------------------------------------|
Hold Bend and Sustain Trill~~~~~~~~~~ Tremolo Picking
---18(20)--------------------------12(15)-------------/--------------|
------------------------------------------------------/--------------|
------------------------------------------------------2--------------|
------------------------------------------------------2--------------|
------------------------------------------------------0--------------|
------------------------------------------------------/--------------|

-------|
-------|
---2---|
---2---|
---0---|
-------|

Girls Got Rythym


Main Riff
-----------------------------------|
---3--1----------------------------|
---2--0-------2-2---5-2------------|
---0------2h4-------5-2------------|
------3-----------0-3-0------------|
-----------------------------------|

Other Riff
------------------------------|
---3-3-3-3--------------------|
---2-2-2-2------2-2---5-2-----|
---0-0-0-0--2h4-------5-2-----|
--------------------0-3-0-----|
------------------------------|

Use the same Riffs for Chorus

Solo 1
------------------5-----------------------|
---7(8)-5(6)-----5------5-5-----5-5-------|
---7(8)-5(6)-7(9)---7(9)----7(9)----------|
------------------------------------------|
------------------------------------------|
------------------------------------------|

------------------5-----------------------|
---7(8)-5(6)-----5------5-----------------|
---7(8)-5(6)-7(9)---7(9)------------------|
------------------------------------------|
------------------------------------------|
------------------------------------------|


Repeat Riffs for rest of song


Walk All Over You


Intro and Chorus Riff
-----------3----2-------------------------|
-----------3----3-----2-------------------|
-----------0----2-----2-------------------|
---2-------0----0-----2-------------------|x4
---2------------------0-------------------|
---0---0-2-3------------------------------|

Intro And Verse Riff
--------3-3--2-2-------2------------|
--------3-3--3-3--2-2--3-2-2--------|
--------0-0--2-2--2-2--2-2-2--------|
---2-2--0-0--0-0--2-2--0-2-2--------|
---2-2------------0-0----0-0--------|
---0-0--3-3-------------------------|

After Talking Play these chords:G G G D D D E

Play Chorus Riff

Play Verse and Chorus

Use Riffs for rest

Touch Too Mouch

Verse 1

---------------------------------------------------------------|
---------------------------------------------------------------|
-9-----9-----9-----9-----9-----9-----9-----9-----9-----9-------|
-9-----9-----9-----9-----9-----9-----9-----9-----9-----9-------|
-7-7-7-7-7-7-7-7-7-7-7-7-7-7-7-7-7-7-7-7-7-7-7-7-7-7-7-7-7-7---|
-0-0-0-0-0-0-0-0-0-0-0-0-0-0-0-0-0-0-0-0-0-0-0-0-0-0-0-0-0-0---|

Guitar 2 Palm Mutes

"It was one of those nights when you turn out the lights"
|--------------------------------------------------------------|
|--------------------------------------------------------------|
|---------9-----9-----9-----9-----------5-5-5-5-5-5-5-5-5------|
|---------9-----9-----9-----9-----------5-5-5-5-5-5-5-5-5------|
|---------7-7-7-7-7-7-7-7-7-7-7-7-------3-3-3-3-3-3-3-3-3------|
|---------0-0-0-0-0-0-0-0-0-0-0-0------------------------------|

"And everything comes in to view"
--------------------------------------------------------------|
-------------------------------15-------15-------15-----------|
------2-2-2-2-2-2-2-2-2-2------14-14-14-14-14-14-14-14--------|
------2-2-2-2-2-2-2-2-2-2------14-14-14-14-14-14-14-14--------|x2
------0-0-0-0-0-0-0-0-0-0-0-0--0--0--0--0--0--0--0--0---------|
--------------------------------------------------------------|

"It wasn't the first wasn't the last"
------------------------------------------------|
------------------------------------------------|
------5-------5---5-----------------------------|
------5-5-5-5-5-5-5-5-5-5-5-5-5-5-5-5-5-5-5-5---|
------3-3-3-3-3-3-3-3-3-3-3-3-3-3-3-3-3-3-3-3---|
------------------------------------------------|

"She knew it was makin' love"
------------------------------------------------|
------------------------------------------------|
------2-------2---2-----------------------------|
------2-2-2-2-2-2-2-2-2-2-2-2-2-2-2-2-2-2-2-2---|
------0-0-0-0-0-0-0-0-0-0-0-0-0-0-0-0-0-0-0-0---|
------------------------------------------------|

"I was so satisfied deep down in side like a"
------------------------------------------------|
------------------------------------------------|
-------5-----5-----5---5------------------------|
-------5-5-5-5-5-5-5-5-5-5-5-5-5-5-5-5-5-5-5----|
-------3-3-3-3-3-3-3-3-3-3-3-3-3-3-3-3-3-3-3----|
------------------------------------------------|

"Hand in a velvet glove seems like a touch"
------------------------------------------------|
------------------------------------------------|
--5-------5---------5---------------------------|
--5-------5------5--5---------------------------|
--7---7---7----7-7--7---------------------------|
------------------------------------------------|

Chorus
----------3-3-3-3------------------2-2-2-2------|
----------3-3-3-3--2-2-2-2---------3-3-3-3------|
----------0-0-0-0--2-2-2-2--5------2-2-2-2------|
---2-2--2-0-0-0-0--2-2-2-2--5------0-0-0-0------|
---2-2--2----------0-0-0-0--3-2-0---------------|
---0-0--0-3-3-3-3-------------------------------|

Solo
B B B B B B B B B
--------12---12-12---12-12---12-12-----12---12-12-----12---12--14-12-|
------12-----12-12---12-12---12-12---12-----12-12---12-----12--14-12-|
---14------14------14------14------14-----14------14-----14----------|
---------------------------------------------------------------------|
---------------------------------------------------------------------|
---------------------------------------------------------------------|
B B B B B
--------------------12---12-12--12-12--12-12--12-12--15-15-15-12-----|
------------------12---15-----15-----15-----15-----------------------|
---14-12-14-12--14---------------------------------------------------|
---------------------------------------------------------------------|
---------------------------------------------------------------------|
---------------------------------------------------------------------|
B
---15-15-15-12-15-12-15---|
--------------------------|
--------------------------|
--------------------------|
--------------------------|
--------------------------|

--------------------------|
--------------------------|
--------2--2---2-4-5-2----|
--------2--2---2-4-5-2-2--|
---2----0--0---0-2-3-0-2--|
---0--3------3---------0--|

Ad Lib Solo Throughout rest of song


Beating Around The Bush

-----------------|
-----------------|
-----------------|
------------0----|x2
-------0h1h2-----|
---0-3-----------|

Riff A
---------------------------------------------------------------------|
---------------------------------------------------------------------|
--------------------------------------------------------------2------|
-------------0--------------------2---------0-----------------2------|
-------0h1h2---2p1p0-------------------0h1h2-2p1p0------------0------|
---0-3---------------3p0-3p0-3p0----0-3-----------3p0-3p0-3p0--------|

Riff B
Play over verse
-----------------------------|
---3-------------------------|
---2-2-2-2-------------------|
---0-2-2-2-------------2-----|
-----0-0-0-------------2-----|
-----------3p0-0-3p0-0-0-----|

Shot Down In Flames

-------------------------------------|
-------3-----3-3-------3-----3-------|
---0h2-2-0h2-2-2---0h2-2-0h2-2-2-----|
---0-----0-----0---0-----0-----2-----|
-------------------------------0-----|
-------------------------------------|

Riff A
---5-5-3-------------|
---5-5-3-------------|
-----------7-7-5-----|
-----------7-7-5-----| repeat as needed
---------------------|
---------------------|

Verse
Play Riff A x2

Now this
-5-5-3--------5-5-3----------------------|
-5-5-3--------5-5-3------3-----3---------|
--------7-7-5--------0h2-2-0h2-2-0h2-----|
--------7-7-5--------0-----0-----0-------|x3
-----------------------------------------|
-----------------------------------------|

Chorus
-------3-3-2-2--------|
-------3-3-3-3--------|
---2-2-0-0-2-2-5------|
---2-2-0-0-0-0-5------|
---0-0---------3------|
-------3-3------------|

Solo P.S. P.S.
---------------2-2------------|
---------------3-3------------|
---2-2---------2-2------------|
---2-2---------0-0------------|x4
---0-0-------------3----------|
-------3-xxxxx-------xxxxx----|

Get It Hot

Intro + Verse:
E|-----------------------|-----------------------|-----------------------|
B|----7--9----7----9--7--|----7--9----7----9--7--|----7--9----7----9--7--|
G|----8--9----8----9--8--|----8--9----8----9--8--|----8--9----8----9--8--|
D|----9--9----9----9--9--|----9--9----9----9--9--|----9--9----9----9--9--|
A|-----------------------|-----------------------|-----------------------|
E|-----------------------|-----------------------|-----------------------|

|-----------------------|-----------------------|-----------------------|
|----7--9----7----9--7--|----7--9----7----9--7--|----7--9----7----9--7--|
|----8--9----8----9--8--|----8--9----8----9--8--|----8--9----8----9--8--|
|----9--9----9----9--9--|----9--9----9----9--9--|----9--9----9----9--9--|
|-----------------------|-----------------------|-----------------------|
|-----------------------|-----------------------|-----------------------|
Going round...
|-----------------------|-----------------------|-----------------------|
|----7--9----7----9--7--|----7--9----7----9--7--|----7--9----7----9--7--|
|----8--9----8----9--8--|----8--9----8----9--8--|----8--9----8----9--8--|
|----9--9----9----9--9--|----9--9----9----9--9--|----9--9----9----9--9--|
|-----------------------|-----------------------|-----------------------|
|-----------------------|-----------------------|-----------------------|
(see 2nd guitar fill-in below)
|-----------------------|-----------------------|-----------------------|
|----7--9----7----9--7--|----7--9----7----9--7--|----7--9----7----9--7--|
|----8--9----8----9--8--|----8--9----8----9--8--|----8--9----8----9--8--|
|----9--9----9----9--9--|----9--9----9----9--9--|----9--9----9----9--9--|
|-----------------------|-----------------------|-----------------------|
|-----------------------|-----------------------|-----------------------|

|-----------------------|-----------------------|-----------------------|
|----7--9----7----9--7--|----7--9----7----9--7--|----7--9----7----9--7--|
|----8--9----8----9--8--|----8--9----8----9--8--|----8--9----8----9--8--|
|----9--9----9----9--9--|----9--9----9----9--9--|----9--9----9----9--9--|
|-----------------------|-----------------------|-----------------------|
|-----------------------|-----------------------|-----------------------|

nobody's...
|----------------------|-----------------------|-----------------------|
|----7--9----7----9----|----------2----2----7--|----7--5--4--5--4------|
|----8--9----8----9----|--1--1----2----2-------|----x--4--4--4--4------|
|----9--9----9----9----|--2--2----2----2----7--|----7--6--4--6--4------|
|----------------------|--2--2----0----0-------|-----------------------|
|----------------------|--0--0-----------------|-----------------------|

|-----------------------|-----------------------|-----------------------|
|----------2----2----7--|----7--5--4--5--4------|----------2----2----7--|
|--1--1----2----2-------|----x--4--4--4--4------|--1--1----2----2-------|
|--2--2----2----2----7--|----7--6--4--6--4------|--2--2----2----2----7--|
|--2--2----0----0-------|-----------------------|--2--2----0----0-------|
|--0--0-----------------|-----------------------|--0--0-----------------|
Get it hot
|-----------------------|-----------------------|------------------|
|----7--5--4--5--4------|----------2----2----4--|------------------|
|----x--4--4--4--4------|--1--1----2----2----4--|------------------|
|----7--6--4--6--4------|--2--2----2----2----4--|------------------|
|-----------------------|--2--2----0----0----2--|------------------|
|-----------------------|--0--0-----------------|------------------|

|---------------------|---------------------|---------------------|
|----4--5----4--------|----4--5----4--------|----4--5----4--------|
|----4--4----4--------|----4--4----4--------|----4--4----4--------|
|----4--6----4--------|----4--6----4--------|----4--6----4--------|
|---------------------|---------------------|---------------------|
|---------------------|---------------------|---------------------|
All right
|---------------------|---------------------|---------------------|
|----4--5----4--------|----4--5----4--------|----4--5----4--------|
|----4--4----4--------|----4--4----4--------|----4--4----4--------|
|----4--6----4--------|----4--6----4--------|----4--6----4--------|
|---------------------|---------------------|---------------------|
|---------------------|---------------------|---------------------|

|-----------------------|-------------------|
|----------2---------4--|--4----------------|
|--1--1----2----1----4--|--4----------------|
|--2--2----2----2----4--|--4----------------|
|--2--2----0----2----2--|--2----------------|
|--0--0---------0-------|-------------------|

If You Want Blood(You've Got It)


Intro + Verse:
E|------------------------|-------3----3--2-------|------------------------|
B|--2-------3-----2----3--|-------3----3--3-------|--2-------3-----2----3--|
G|--2-------2-----2----2--|-------0----0--2-------|--2-------2-----2----2--|
D|--2-------0-----2----0--|-------0----0--0-------|--2-------0-----2----0--|
A|--0----x-----x--0-------|----x---------------x--|--0----x-----x--0-------|
E|------------------------|-----------------------|------------------------|

|-------3----3--2-------|------------------------|-------3----3--2-------|
|-------3----3--3-------|--2-------3-----2----3--|-------3----3--3-------|
|-------0----0--2-------|--2-------2-----2----2--|-------0----0--2-------|
|-------0----0--0-------|--2-------0-----2----0--|-------0----0--0-------|
|----x---------------x--|--0----x-----x--0-------|----x---------------x--|
|-----------------------|------------------------|-----------------------|

if you want blood...
|------------------------|-------3----3--2--2----|-------------3----2--|
|--2-------3-----2----3--|-------3----3--3--3----|--2----------3----3--|
|--2-------2-----2----2--|-------0----0--2--2----|--2----------0----2--|
|--2-------0-----2----0--|-------0----0--0--0----|--2----------0----0--|
|--0----x-----x--0-------|----x------------------|--0----------2-------|
|------------------------|-----------------------|-------------3-------|

|------------------|-------------3----2--|------------------|
|------------------|--2----------3----3--|------------------|
|------------------|--2----------0----2--|------------------|
|------------------|--2----------0----0--|------------------|
|------------------|--0----------2-------|------------------|
|------------------|-------------3-------|------------------|

|-------------3----2--|------------------|-------------3----2--|
|--2----------3----3--|------------------|--2----------3----3--|
|--2----------0----2--|------------------|--2----------0----2--|
|--2----------0----0--|------------------|--2----------0----0--|
|--0----------2-------|------------------|--0----------2-------|
|-------------3-------|------------------|-------------3-------|

|------------------|-------------3----2--|------------------|
|------------------|--2----------3----3--|------------------|
|------------------|--2----------0----2--|------------------|
|------------------|--2----------0----0--|------------------|
|------------------|--0----------2-------|------------------|
|------------------|-------------3-------|------------------|

Solo 1
Slowly
e:|----------------------------------------------5---------------------|
B:|----------------------------------------7b~~----5--9b--10-8---------|
G:|---------5-7-5---5--5-5---5-5-5---5-5-5---------------------9-7h8p7-|
D:|---------------7--------7-------7-----------------------------------|
A:|--------------------------------------------------------------------|
E:|-3b-----------------------------------------------------------------|

e:------------10~~\-7/10~~----10-10----10-10-----10-10--10~~~----5-8-5-8-5-|
B:-------------------------12-------12-------12b---------------8-----------|
G:--7-5b-------------------------------------------------------------------|
D:9------7-7---------------------------------------------------------------|
A:-------------------------------------------------------------------------|
E:-------------------------------------------------------------------------|

e:------------------------------------------------------------------|
B:8-5-8-5---------------------------5-5---5-5---5-5-----------------|
G:--------7-5-7-5---5-7-7--5--------5-5---5-5---5-5-etc...---5\-----|
D:----------------7----------7~~--7-----7-----7-------------------5b|
A:------------------------------------------------------------------|
E:------------------------------------------------------------------|

e:----------17b~~~-----------------------------------------|
B:-----0/--------------------------------------------------|
G:/17------------------------------------------------------|
D:---------------------------------------------------------|
A:---------------------------------------------------------|
E:---------------------------------------------------------|

after solo:
|-------------------2--|----3--3----3--2------|---------------------|
|--2------3----2----3--|----3--3----3--3------|----2------3----2----|
|--2------2----2----2--|----2--2----2--2------|----2------2----2----|
|--2------2----2----0--|----0--0----0--0------|----2------2----2----|
|--0------0----0-------|----------------------|----0------0----0----|
|----------------------|----------------------|---------------------|

|------------------------|-------------------2--|----3--3----3--2------|
|------------------------|--2------3----2----3--|----3--3----3--3------|
|------------------------|--2------2----2----2--|----2--2----2--2------|
|----------0-------------|--2------2----2----0--|----0--0----0--0------|
|-------0--------0--3----|--0------0----0-------|----------------------|
|----2--------3----------|----------------------|----------------------|

|---------------------|------------------------|
|----2------3----2----|------------------------|
|----2------2----2----|------------------------|
|----2------2----2----|----------0-------------|
|----0------0----0----|-------0--------0--3----|
|---------------------|----2--------3----------|

Solo
e:----------------------------------------------------------------17-------|
B:-17b-------------------------------17------------------------------17----|
G:-----17--14~~--------14-16-16b-16b-----16b-14h16p14-----14--16b-------16b|
D:---------------14-16---------------------------------16------------------|
A:-------------------------------------------------------------------------|
E:-------------------------------------------------------------------------|

e:17------------------------------------------------------17~~~-14-17-17-|
B:---17----------------17----17------------17----17----17----------------|
G:------16b-etc...--16----16----16-14~~-16----16----16-------------------|
D:-----------------------------------------------------------------------|
A:-----------------------------------------------------------------------|
E:-----------------------------------------------------------------------|

e:14-17-17~~~--20b--20b-20b-20b-20b~~~~--17-20-19-17h19p17--17b---|
B:----------------------------------------------------------20b---|
G:----------------------------------------------------------------|
D:----------------------------------------------------------------|
A:----------------------------------------------------------------|
E:----------------------------------------------------------------|

Love Hungry Man

Intro + Verse + Chorus:
E|--2----------------|--2--------3--------|-------------------|
B|--3----------------|--3--------3--------|--2----------------|
G|--2----------------|--2--------0--------|--2----------------|
D|--0----------------|--4--------0--------|--2----------------|
A|-------------------|--------------------|--0----------------|
E|-------------------|--------------------|-------------------|

|------------------|--2----------------|--2--------3--------|---------------|
|------------------|--3----------------|--3--------3--------|--2------------|
|------------------|--2----------------|--2--------0--------|--2------------|
|------------------|--0----------------|--4--------0--------|--2------------|
|------------------|-------------------|--------------------|--0------------|
|------------------|-------------------|--------------------|---------------|
I don't no what your name is...
|------------------|-------------------|------------------|-----------------|
|------------------|-------------------|------------------|-----------------|
|------------------|--2----------------|------------------|--2--------------|
|------------------|--2----------------|------------------|--2--------------|
|------------------|--0----------------|------------------|--0--------------|
|------------------|-------------------|------------------|-----------------|
to chorus:
|------------------|-------------------|------------------|-----------------|
|------------------|-------------------|------------------|-----------------|
|------------------|--2----------------|------------------|--2--------------|
|------------------|--2----------------|------------------|--2--------------|
|------------------|--0----------------|------------------|--0--------------|
|------------------|-------------------|------------------|-----------------|

Bridge: don't want no conversation
|------------------|----------------------|----------------------|
|------------------|----------------------|----------------------|
|------------------|----------------------|----------------------|
|------------------|--7--7----5--7--------|--7--7----5--7--------|
|------------------|--7--7----5--7--------|--7--7----5--7--------|
|------------------|--5--5----3--5--------|--5--5----3--5--------|

Night Prowler


e|--------------------------------|----------------------------|-------------|
b|----------3---------3--------3--|----------3-----3------3----|-------------|
g|--2-------2---------0--------2--|----2-----2-----0------2----|-------------|
D|--2-------0------------------0--|----2-----0------------0----|-------------|
A|--0-----------------3-----------|----0-----------3-----------|--------0--3-|
E|--------------------------------|----------------------------|--0--3-------|

..Pattern1.........................endpattern.
/ A5 D5 Csus2 D5 \
e|--------------------------------|--------------|
b|----------3-------------3----3--|--------------|
g|--2-------2---------0-0------2--|--------------|
D|--2-------0------------------0--|--------------|
A|--0---------------3-------------|--------0--3--|
E|--------------------------------|--0--3--------|

..Pattern2.........................endpattern.
/ A5 D5 Csus2 Dsus2 \
e|-----------------------------0-----------------|
b|----------3-------3-3-3-3-3--3-----------------|
g|--2-------2-------0-0-0-0-0--2-----------------|
D|--2-------0------------------0-----------------|
A|--0---------------3-3-3-3-3--------------------|
E|-----------------------------------------------|

(Angus w/pattern 1)
b ~~~~~~~~~~~~~~~~~~~~~~~~~~~ r b ~~~~~~~~~~~ r
e|--------------------------------------------------------------------------|
b|-8-10----------------------------10-10--8-5---8-------10-----------10--8--|
g|--------------------------------------------------------------------------|
D|--------------------------------------------------------------------------|
A|--------------------------------------------------------------------------|
E|--------------------------------------------------------------------------|

b b t r t b r
e|----------------------------------------------------------------|
b|----------------------------------------------------------------|
g|-7-----8----9--12-14----------9---7-----5-----12-14----8--7--5--|
D|----------------------------------------------------------------|
A|----------------------------------------------------------------|
E|----------------------------------------------------------------|
(Angus w/pattern 2)
t b r t b r b b r
e|---------------------------------------------------8-10-------------------|
b|----------------------------------------------5------------8-10---8--5----|
g|12-14----8---7------5---12-14------8-----7----5---------------------------|
D|--------------------------------------------------------------------------|
A|--------------------------------------------------------------------------|
E|--------------------------------------------------------------------------|
Pattern 3 (Verse)
A5 D G D
e|----------------------------------|
b|-------------------0--------------| X 2
g|-------------------0-----------2--|
D|-2-------4---------0-----------4--|
A|-0-------5---------------------5--|
E|----------------------------------|
( rat runs down the alley...) Pattern 4 (played 4 times)
A5 D G D
e|--------------------------------------------------------------------------|
b|--------------------------------------------------------------------------|
g|-------------------------0------------------------------------------------|
D|-2------2-----4----------0----------4-------------------------------------|
A|-0------0-----5---------------------5-------------0--3--------------------|
E|--------------------------------------------0--3--------------------------|

Play Chorus w/Pattern 1 (3 1/2 X)
(...you shut out the light...)

e|--------------------------------------| Pattern 5
b|-3--3--3--3--3--3--3--3--3--3--3--3---|
g|-0--0--0--0--0--0--2--2--2--2--2--2---|
D|-------------------0--0--0--0--0--0---|
A|-3--3--3--3--3--3---------------------|
E|--------------------------------------|
Solo w/fig.1 (Chorus-like)
b~~~~~~~~~~~~ b b b r ~~~~~~~ ~~~~~~~ b b r b ~~
e|--------------------------------------------------------------------------|
b|------------------------------------------------------8-9-----8-10-----9--|
g|7--9-----------9-7-8-9-8-9-------7--5-------------------------------------|
D|-------------------------------------------7--------x---------------------|
A|--------------------------------------------------------------------------|
E|--------------------------------------------------------------------------|
~~~~~~ b b b b b b r b ~~~~~~
e|---------------------------------------------------------------------------|
b|----\-/7----------------------------------------------------------------10-|
g|-----------5--6-7--5--6-7--5--6-7--5--6-7--5--6-7--9---7---9-----\---------|
D|--------------------------------------------------------------------2-/----|
A|---------------------------------------------------------------------------|
E|---------------------------------------------------------------------------|
b b ~~~~~~~~ | b (| end w/Pattern 5)
e|0-------------------------------------------------------------------------|
b|---7-8--8-10----10--10--------10\------13-15------15-----15---------------|
g|--------------------------------------------------------------------------|
D|--------------------------------------------------------------------------|
A|--------------------------------------------------------------------------|
E|--------------------------------------------------------------------------|
Pattern 6 (for Verse 2) 4 x
A5 A6 A7(no 3rd) A6
e|--------------------------------------------------------------------------|
b|--------------------------------------------------------------------------|
g|--------------------------------------------------------------------------|
D|-2---2--2---2---4-----4--4-----4---5-----5--5-----5--4--------------------|
A|-0---0--0---0---0-----0--0-----0---0-----0--0-----0--0----------0----3----|
E|----------------------------------------------------------0--3------------|
Solo: w/patt.1
b ~~~~~~~~~~~ r b r b r b r b r b r b ~~~~~~~~~~ b ~~~
e|-----------------------------------------------------------5---------------|
b|--------------------------------------------------------------5-------8--1-|
g|--7--9-----------9--8--9-8--9--8-9-8-9-8-9--8--9---------------------------|
D|---------------------------------------------------------------------------|
A|---------------------------------------------------------------------------|
E|---------------------------------------------------------------------------|
~~~~ b ~~~~~~~~ b ~~~~~ r b r b r b r b
e|------8-10--------8-5--3-5-0-3--------------------------------------------|
b|--\----------------------------3-5----------------------------------------|
g|-----------------------------------5-------7--9----------9-7-9-7--9-7-9-7-|
D|--------------------------------------------------------------------------|
A|--------------------------------------------------------------------------|
E|--------------------------------------------------------------------------|
~~~~ ~~ ~~~ ~~~~ ~~~~
e|-----------------------------------------------------------------|
b|----------------------------------------------------------8-10---|
g|-9-9-9-9-----9-9-9-9--9-9-9-9--9-9-9---9-9-9-9----x--x-----------|
D|---------------------------------------------------\--\----------|
A|-------------------------------------------------------\---------|
E|-----------------------------------------------------------------|
~~~~~ hb ~~~~~ ~~~
e|-5-3-0--8-5-0-5-3-0-------------------------------------------------------|
b|--------------------5-3-0-------------------------------------------------|
g|--------------------------5-2-0-------------------------------------------|
D|--------------------------------5-2-0-2--5-------5--5-7--7----7----7--7---|
A|--------------------------------------------------------------------------|
E|-----------------------------------------------3--------------------------|

e|-------0----0----0----------------|
b|-------3----3----3----------------|
g|x\-----0----0----2----------------|
D|--\--------------0----------------|
A|---\---3----3----------------0--3-|
E|----------------------0---3-------|
b b
e|---------------------------------------------------------------------------|
b|1--3----2-0-3--0-2--0-3-1-3-1-3-1-3-1---3-1-3-1-3-1------------------------|
g|-----------------------------------------------------5-7--------9-----x----|
D|------------------------------------------------------------------------\--|
A|-------------------------------------------------------------------------\-|
E|---------------------------------------------------------------------------|
b ~~~~~~~ b ~~~~~~ ~~~~~
e|---------------5-------------------------5-------------5-------5------\---|
b|-------------5---5-8-10------x\--8-10------8-5--8-10------8--5----------/-|
g|7-9-----------------------------------------------------------------------|
D|--------------------------------------------------------------------------|
A|--------------------------------------------------------------------------|
E|--------------------------------------------------------------------------|
~~~~~~~~~~~~ b
e|-8-5-----5-----------------------------------------------------------------|
b|-----8------5---8--5----------------------------------------------x---8-10-|
g|----------------------5--8--7--5--7----------------------------------------|
D|-------------------------------------7--5--7--5-----------\19--------------|
A|---------------------------------------------------------------------------|
E|---------------------------------------------------------------------------|
b ~~~~~~ b b b~~~~~
e|---------------------------------------------------7-8----7-8---7-8--------|
b|8-10--10------10--10--10--10--10--10--10--10-----------------------------x-|
g|---------------------------------------------------------------------------|
D|---------------------------------------------------------------------------|
A|---------------------------------------------------------------------------|


*

«  Сентябрь 2017  »
ПнВтСрЧтПтСбВс
    123
45678910
11121314151617
18192021222324
252627282930

*

ПАРТНЕРЫ:


Fan Site Geordie 2008 - 2017