GEORDIE - High Voltage (intro)


High Voltage (intro) Тип: табулатура


High Voltage
AC/DC
High Voltage
ATCO Angus Young Malcom Young, and Ronald "Bon" Scott

Submitted by SquierStrat2


--------------------------/-----------------------------------------
-9-9-9--------------------\-9-9-9-----------------------------------
-9-9-9----5---------------/-9-9-9----5------------------------------
-9-9-9----5---------5-5---\-9-9-9----5---------5-5------------------
-7-7-7----7----4----5-5---/-7-7-7----7----4----5-5------------------
-0-0-0--------------7-7---\-0-0-0--------------7-7------------------

Repeat a few Times
>=slide
Verses
---------5-5-----------5-5------------5-5------------------- Repeat through
------------------------------------------------------------ entire verse-->
--5->-6----------5->-6---------5->-6------------------------
------------------------------------------------------------
------------------------------------------------------------
------------------------------------------------------------

It is different in the Bonfire tab book but it sounds
the same and is easier to play.


*

«  Июнь 2018  »
ПнВтСрЧтПтСбВс
    123
45678910
11121314151617
18192021222324
252627282930

*

ПАРТНЕРЫ:


Fan Site Geordie 2008 - 2018