GEORDIE - Blood You Got It


Blood You Got It Тип: басс табулатура


##NOTES##
Tuning is half step down. Main notes are A,D,and G.

G||------------------|--------------------||
D||------------------|-------------------o||
A||------------------|-5-5-5-5-5-5-5-5-5-o||
E||-5-5-5-5-5-5-5-5-5|--------------------||

G||---------------||
D||--------------o||
A||-----------5--o||
E||--5-----3------||

Then on the last time, near the solo play a basic D
then do this fill

G||----------------------------||
D||----------------------------||
A||--5-5-5-4-4-4-2-2-2---------||
E||--------------------5-5-3-3-||

Solo
G||------------------|--------------------||
D||------------------|-------------------o||
A||------------------|-5-5-5-5-5-5-5-5-5-o||
E||-5-5-5-5-5-5-5-5-5|--------------------||

Then repeat the second line as an outro.


*

«  Октябрь 2018  »
ПнВтСрЧтПтСбВс
1234567
891011121314
15161718192021
22232425262728
293031

*

ПАРТНЕРЫ:


Fan Site Geordie 2008 - 2018